» » »

Bad Religion - Social Suicide Bass

Artists:  A B C D E F G H I J K L M N O P Q R S T U V W X Y Z # 

Social Suicide Bass

(ver. 2) Click to play this song!
Bad Religion
 Rating:
4/5 (4 votes)


 Social Suicide lessons Tabs too difficult? Try these video lessons and learn fast
 
                Band: Bad Religión
Bassist: Jay Bentley


Great fast punk song!
INTRO
G-------------------------------------------------|
D-------------------------------------------------|
A--12-12-12-12-12-12-12-12-10-10-10-10------------|
E--------------------------------------8-8-10-----|
                X2
VERSE
G-------------------------------------------------|
D-------------------------------------------------|
A------------------3-3-3-3------------------------|
E--5-5-5-3-5-5-5-3---------3-3-3-3----------------|

CHORUS
G--------------------------------------------------|
D--------------------------------------------------|
A--3-3-3-3-3-3-3-3---------3-3-3-3-----------------|
E------------------1-1-1-1---------3-3-3-3-3-3-3-3-|

G--------------------------------------------------|
D--------------------------------------------------|
A------------------------------------------3-3-3-3-|
E--1-1-1-1-0-0-0-0-5-5-5-5-5-5-5-5-1-1-1-1---------|

G-------------------------------------------------|
D-------------------------------------------------|
A--2-2-2-2-2-2-2-2--------------------------------|
E------------------11--00-------------------------|

PRE-VERSE (I don’t really know how is it called)
G-------------------------------------------------|
D-------------------------------------------------|
A------------------3-3-3-3------------------------|
E--5-5-5-3-5-5-5-3---------3-3-3-3----------------|

G-------------------------------------------------|
D------------------7-5----------------------------|
A----------------------7-5-3-3-7------------------|
E--5-5-5-3-5-5-5-3---------------5----------------|

BRIDGE
G-------------------------------------------------|
D-------------------------------------------------|
A--------------8--3-3-3-3---3---------------------|
E--5-5-5-5-5-5------------3-----------------------|
               X2
G-------------------------------------------------|
D-------------------------------------------------|
A--12-12-12-12-12-12-12-12-10-10-10-10----10------|
E--------------------------------------8----------|

G-------------------------------------------------|
D-------------------------10-10-10-10-12----------|
A--12-12-12-12-12-10----------------------10------|
E--------------------12-8-------------------------|

G---------------------------14--------------------|
D-------------------------12---10-----------------|
A--12-12-12-12-12-10--------------12-10-----------|
E--------------------12-8-------------------------|

G-------------------------------------------------|
D-------------------------------------------------|
A-------------------------------------------------|
E--12-12-12-12-10-10-10-10-3-3-3-3-5-5-5-5--------|

OUTRO
G-------------------------------------------------|
D-------------------------------------------------|
A------------------3-3-3-3------------------------|
E--5-5-5-3-5-5-5-3---------3-3-3-3-5--------------|


INTRO X1
VERSE X4
CHORUS X1
PRE-VERSE X1
VERSE X4
CHORUS X1
BRIDGE X1
CHORUS X1
OUTRO X1
            
Submit corrections



        Social Suicide lessons Hard to play? Try these video lessons and learn fast Social Suicide lessons
        
↑ Back to top | Tablatures and chords for acoustic guitar and electric guitar, ukulele, drums are parodies/interpretations of the original songs. You may use it for private study, scholarship, research or language learning purposes only