» » »

Bad Religion - Better Off Dead Bass

Artists:  A B C D E F G H I J K L M N O P Q R S T U V W X Y Z # 

Better Off Dead Bass

(ver. 2) Click to play this song!
Bad Religion
 Rating:
4/5 (4 votes)


 Better Off Dead lessons Tabs too difficult? Try these video lessons and learn fast
 
                -----------------------------------------------------------------------------------------------------
                                   BETTER OFF DEAD - Bad Religion
-----------------------------------------------------------------------------------------------------


Tuning: Eb, Ab, Db, Gb

Gb|------------------------------------------------|------------------------------------------------|
Db|------------------------------------------------|------------------------------------------------|
Ab|------------------------------------------------|------------------------------------------------|
Eb|-5-----5--5-----5--5-----1-----1--1-----1--1----|-5-----5--5-----5--5-----3-----3--3-----3--3----|

Gb|------------------------------------------------|------------------------------------------------|
Db|------------------------------------------------|------------------------------------------------|
Ab|------------------------------------------------|-3-----3--3-----3--3-----3-----------2----------|
Eb|-5-----5--5-----5--5-----1-----1--1-----1--1----|------------------------------------------------|

Gb|------------------------------------------------|------------------------------------------------|
Db|------------------------------------------------|------------------------------------------------|
Ab|------------------------------------------------|------------------------------------------------|
Eb|-5-----5--5-----5--5-----1-----1--1-----1--1----|-5-----5--5-----5--5-----3-----3--3-----3--3----|

Gb|------------------------------------------------|------------------------------------------------|
Db|------------------------------------------------|------------------------------------------------|
Ab|------------------------------------------------|------------------------------------------------|
Eb|-5-----5--5-----5--5-----1-----1--1-----1--1----|-0----------------------------------------------|

Gb|------------------------------------------------|------------------------------------------------|
Db|-2-----------2-----------2----------------------|------------------------------------------------|
Ab|-------------------------------5-----3-----2----|------------------------------------------------|
Eb|------------------------------------------------|-5-----5--5-----5--5-----1-----1--1-----1--1----|
                                                           I'm Sorry...

Gb|------------------------------------------------|------------------------------------------------|
Db|------------------------------------------------|------------------------------------------------|
Ab|------------------------------------------------|------------------------------------------------|
Eb|-5-----5--5-----5--5-----3-----3--3-----3--3----|-5-----5--5-----5--5-----1-----1--1-----1--1----|

Gb|------------------------------------------------|------------------------------------------------|
Db|------------------------------------------------|------------------------------------------------|
Ab|-3-----3--3-----3--3----------------------------|------------------------------------------------|
Eb|-------------------------3-----3--3-----3--3----|-5-----5--5-----5--5-----1-----1--1-----1--1----|

Gb|------------------------------------------------|------------------------------------------------|
Db|------------------------------------------------|------------------------------------------------|
Ab|------------------------------------------------|------------------------------------------------|
Eb|-5-----5--5-----5--5-----3-----3--3-----3--3----|-5-----5--5-----5--5-----1-----1--1-----1--1----|

Gb|------------------------------------------------|------------------------------------------------|
Db|------------------------------------------------|------------------------------------------------|
Ab|------------------------------------------------|------------------------------------------------|
Eb|-3-----3--3-----3--3-----3-----3--3-----3--3----|-5-----5--5-----5--5-----1-----1--1-----1--1----|

Gb|------------------------------------------------|------------------------------------------------|
Db|------------------------------------------------|------------------------------------------------|
Ab|------------------------------------------------|------------------------------------------------|
Eb|-5-----5--5-----5--5-----3-----3--3-----3--3----|-5-----5--5-----5--5-----1-----1--1-----1--1----|

Gb|------------------------------------------------|------------------------------------------------|
Db|------------------------------------------------|------------------------------------------------|
Ab|-3-----3--3-----3--3----------------------------|------------------------------------------------|
Eb|-------------------------3-----3--3-----3--3----|-5-----5--5-----5--5-----1-----1--1-----1--1----|

Gb|------------------------------------------------|------------------------------------------------|
Db|------------------------------------------------|------------------------------------------------|
Ab|------------------------------------------------|------------------------------------------------|
Eb|-5-----5--5-----5--5-----3-----3--3-----3--3----|-5-----5--5-----5--5-----1-----1--1-----1--1----|

Gb|------------------------------------------------|------------------------------------------------|
Db|------------------------------------------------|------------------------------------------------|
Ab|------------------------------------------------|------------------------------------------------|
Eb|-3-----3--3-----3--3-----3-----3--3-----3--3----|-1-----1--1-----1--1-----1-----1--1-----1--1----|
                            And        I'll         never    make...

Gb|------------------------------------------------|------------------------------------------------|
Db|------------------------------------------------|------------------------------------------------|
Ab|-------------------------------------------2----|-3-----3--3-----3--3-----2-----2--2-----2--2----|
Eb|-3-----3--3-----3--3-----3-----3-----5----------|------------------------------------------------|

Gb|------------------------------------------------|------------------------------------------------|
Db|------------------------------------------------|------------------------------------------------|
Ab|------------------------------------------------|------------------------------------------------|
Eb|-5-----5--5-----5--5-----3-----3--3-----3--3----|-1-----1--1-----1--1-----1-----1--1-----1--1----|

Gb|------------------------------------------------|------------------------------------------------|
Db|------------------------------------------------|------------------------------------------------|
Ab|------------------------------------------------|-3-----3--3-----3--3----------------------------|
Eb|-3-----3--3-----3--3-----3-----3--3-----3--3----|-------------------------3-----3--3-----3--3----|

Gb|------------------------------------------------|-------------------2-----5-----4-----2----------|
Db|------------------------------------------------|-------------------------------------------2----|
Ab|-3-----------------------3-----------2----------|------------------------------------------------|
Eb|------------------------------------------------|-5-----5--5-------------------------------------|
                            But   un-til  then...

Gb|------------------------------------------------|------------------------------------------------|
Db|-3-----3-----2-----2-----------------2----------|-------------------------------------2-----3----|
Ab|-------------------------5-----5----------------|-3-----3--3-----3--3-----3-----5----------------|
Eb|-------------------------------------------5----|------------------------------------------------|

Gb|------------------------------------------------|-------------------2-----5-----4-----2----------|
Db|-5-----5--5-----5--5-----5-----3-----2----------|-------------------------------------------2----|
Ab|-------------------------------------------5----|------------------------------------------------|
Eb|------------------------------------------------|-5-----5--5-------------------------------------|

Gb|------------------------------------------------|------------------------------------------------|
Db|-3-----3-----2-----2-----------------2----------|-------------------------------------2-----5----|
Ab|-------------------------5-----5----------------|-3-----3--3-----3--3-----3-----5----------------|
Eb|-------------------------------------------5----|------------------------------------------------|

Gb|------------------------------------------------|------------------------------------------------|
Db|-2-----2--2-----2--2-----2-----2--2-----2--2----|-2-----2--2-----2--2-----2----------------------|
Ab|------------------------------------------------|-------------------------------5-----3-----2----|
Eb|------------------------------------------------|------------------------------------------------|

Gb|------------------------------------------------|------------------------------------------------|
Db|------------------------------------------------|------------------------------------------------|
Ab|------------------------------------------------|------------------------------------------------|
Eb|-5-----5--5-----5--5-----1-----1--1-----1--1----|-5-----5--5-----5--5-----3-----3--3-----3--3----|
          I'm sorry....

Gb|------------------------------------------------|------------------------------------------------|
Db|------------------------------------------------|------------------------------------------------|
Ab|------------------------------------------------|-3-----3--3-----3--3----------------------------|
Eb|-5-----5--5-----5--5-----1-----1--1-----1--1----|-------------------------3-----3--3-----3--3----|

Gb|------------------------------------------------|------------------------------------------------|
Db|------------------------------------------------|------------------------------------------------|
Ab|------------------------------------------------|------------------------------------------------|
Eb|-5-----5--5-----5--5-----1-----1--1-----1--1----|-5-----5--5-----5--5-----3-----3--3-----3--3----|

Gb|------------------------------------------------|------------------------------------------------|
Db|------------------------------------------------|------------------------------------------------|
Ab|------------------------------------------------|------------------------------------------------|
Eb|-5-----5--5-----5--5-----1-----1--1-----1--1----|-3-----3--3-----3--3-----3-----3--3-----3--3----|
                                                                             And    I'll

Gb|------------------------------------------------|------------------------------------------------|
Db|------------------------------------------------|------------------------------------------------|
Ab|------------------------------------------------|-------------------------------------------2----|
Eb|-1-----1--1-----1--1-----1-----1--1-----1--1----|-3-----3--3-----3--3-----3-----3-----5----------|
    never make...

Gb|------------------------------------------------|------------------------------------------------|
Db|------------------------------------------------|------------------------------------------------|
Ab|-3-----3--3-----3--3-----2-----2--2-----2--2----|------------------------------------------------|
Eb|------------------------------------------------|-5-----5--5-----5--5-----3-----3--3-----3--3----|

Gb|------------------------------------------------|------------------------------------------------|
Db|------------------------------------------------|------------------------------------------------|
Ab|------------------------------------------------|------------------------------------------------|
Eb|-1-----1--1-----1--1-----1-----1--1-----1--1----|-3-----3--3-----3--3-----3-----3--3-----3--3----|

Gb|------------------------------------------------|------------------------------------------------|
Db|------------------------------------------------|------------------------------------------------|
Ab|-3-----3--3-----3--3----------------------------|-3-----------------------3-----------2----------|
Eb|-------------------------3-----3--3-----3--3----|------------------------------------------------|
                                                                             But  un-til  then...

Gb|-------------------2-----5-----4-----2----------|------------------------------------------------|
Db|-------------------------------------------2----|-3-----3-----2-----2-----------------2----------|
Ab|------------------------------------------------|-------------------------5-----5----------------|
Eb|-5-----5--5-------------------------------------|-------------------------------------------5----|

Gb|------------------------------------------------|------------------------------------------------|
Db|------------------------------------------------|------------------------------------------------|
Ab|-3-----3--3-----3--3-----3----------------------|-------------------------------------------2----|
Eb|-------------------------------1-----3-----5----|-3-----3--3-----3--3-----3-----3-----5----------|

Gb|-------------------2-----5-----4-----2----------|------------------------------------------------|
Db|-------------------------------------------2----|-3-----3-----2-----2-----------------2----------|
Ab|------------------------------------------------|-------------------------5-----5----------------|
Eb|-5-----5--5-------------------------------------|-------------------------------------------5----|

Gb|------------------------------------------------|------------------------------------------------|
Db|-------------------------------------2-----3----|-5-----5--5-----5--5-----5-----3-----2----------|
Ab|-3-----3--3-----3--3-----3-----5----------------|-------------------------------------------5----|
Eb|------------------------------------------------|------------------------------------------------|

Gb|-------------------2-----5-----4-----2----------|------------------------------------------------|
Db|-------------------------------------------2----|-3-----3-----2-----2-----------------2----------|
Ab|------------------------------------------------|-------------------------5-----5----------------|
Eb|-5-----5--5-------------------------------------|-------------------------------------------5----|

Gb|------------------------------------------------|------------------------------------------------|
Db|------------------------------------------------|------------------------------------------------|
Ab|-3-----3--3-----3--3-----3----------------------|-------------------------------------------2----|
Eb|-------------------------------1-----3-----5----|-3-----3--3-----3--3-----3-----3-----5----------|

Gb|-------------------2-----5-----4-----2----------|------------------------------------------------|
Db|-------------------------------------------2----|-3-----3-----2-----2-----------------2----------|
Ab|------------------------------------------------|-------------------------5-----5----------------|
Eb|-5-----5--5-------------------------------------|-------------------------------------------5----|

Gb|------------------------------------------------|------------------------------------------------|
Db|-------------------------------------2-----5----|-2-----2--2-----2--2-----2----------------------|
Ab|-3-----3--3-----3--3-----3-----5----------------|-------------------------------5-----3-----2----|
Eb|------------------------------------------------|------------------------------------------------|
                                                                             And   I'll   never...

Gb|------------------------------------------------|------------------------------------------------|
Db|------------------------------------------------|------------------------------------------------|
Ab|------------------------------------------------|-------------------------------------------2----|
Eb|-1-----1--1-----1--1-----1-----1--1-----1--1----|-3-----3--3-----3--3-----3-----3-----5----------|

Gb|------------------------------------------------|------------------------------------------------|
Db|------------------------------------------------|------------------------------------------------|
Ab|-3-----------------------2----------------------|------------------------------------------------|
Eb|------------------------------------------------|-5-----5--5-----5--5-----3-----3--3-----3--3----|

Gb|------------------------------------------------|------------------------------------------------|
Db|------------------------------------------------|------------------------------------------------|
Ab|------------------------------------------------|------------------------------------------------|
Eb|-1-----1--1-----1--1-----1-----1--1-----1--1----|-3-----3--3-----3--3-----3-----3--3-----3--3----|

Gb|------------------------------------------------|------------------------------------------------|
Db|------------------------------------------------|------------------------------------------------|
Ab|-3-----3--3-----3--3----------------------------|-3--------------------3-----------2-------------|
Eb|-------------------------3-----3--3-----3--3----|------------------------------------------------|

Gb|-------------------2-----5-----4-----2----------|------------------------------------------------|
Db|-------------------------------------------2----|-3-----3-----2-----2-----------------2----------|
Ab|------------------------------------------------|-------------------------5-----5----------------|
Eb|-5-----5--5-------------------------------------|-------------------------------------------5----|
    SOLO...

Gb|------------------------------------------------|------------------------------------------------|
Db|------------------------------------------------|------------------------------------------------|
Ab|-3-----3--3-----3--3-----3----------------------|-------------------------------------------2----|
Eb|-------------------------------1-----3-----5----|-3-----3--3-----3--3-----3-----3-----5----------|

Gb|-------------------2-----5-----4-----2----------|------------------------------------------------|
Db|-------------------------------------------2----|-3-----3-----2-----2-----------------2----------|
Ab|------------------------------------------------|-------------------------5-----5----------------|
Eb|-5-----5--5-------------------------------------|-------------------------------------------5----|

Gb|------------------------------------------------|------------------------------------------------|
Db|-------------------------------------2-----5----|-2-----2--2-----2--2-----2----------------------|
Ab|-3-----3--3-----3--3-----3-----5----------------|-------------------------------5-----3-----2----|
Eb|------------------------------------------------|------------------------------------------------|
                                                                                    And I'll never...

Gb|------------------------------------------------|------------------------------------------------|
Db|------------------------------------------------|------------------------------------------------|
Ab|------------------------------------------------|-------------------------------------------2----|
Eb|-1-----1--1-----1--1-----1-----1--1-----1--1----|-3-----3--3-----3--3-----3-----3-----5----------|

Gb|------------------------------------------------|------------------------------------------------|
Db|------------------------------------------------|------------------------------------------------|
Ab|-3-----------------------2----------------------|------------------------------------------------|
Eb|------------------------------------------------|-5-----5--5-----5--5-----3-----3--3-----3--3----|

Gb|------------------------------------------------|------------------------------------------------|
Db|------------------------------------------------|------------------------------------------------|
Ab|------------------------------------------------|------------------------------------------------|
Eb|-1-----1--1-----1--1-----1-----1--1-----1--1----|-3-----3--3-----3--3-----3-----3--3-----3--3----|

Gb|------------------------------------------------|------------------------------------------------|
Db|------------------------------------------------|------------------------------------------------|
Ab|-3-----------------------3----------------------|-3----------------------------------------------|
Eb|------------------------------------------------|------------------------------------------------|

| /  slide up
| \  slide down
| h  hammer-on
| p  pull-off
| ~  vibrato
| +  harmonic
| x  Mute note
===============================================================================
            
Submit corrections



        Better Off Dead lessons Hard to play? Try these video lessons and learn fast Better Off Dead lessons
        
↑ Back to top | Tablatures and chords for acoustic guitar and electric guitar, ukulele, drums are parodies/interpretations of the original songs. You may use it for private study, scholarship, research or language learning purposes only