» » »

Babyshambles - Blinding Bass

Artists:  A B C D E F G H I J K L M N O P Q R S T U V W X Y Z # 

Blinding Bass

(ver. 1) Click to play this song!
Babyshambles
 Rating:
3.7/5 (6 votes)


 Blinding lessons Tabs too difficult? Try these video lessons and learn fast
 
                -------------------------------------------------------------------------------
-------------------------------------------------------------------------------


Tuning: Standard

Intro

G|--------------------------------------------------------------------|
D|-------9-------9-------9-------9-------7-------7---7\\--------------|
A|--------------------------------------------------------------------|
E|---7-7---0-7-7---0-7-7---0-7-7---0-5-5---0-5-5---5-5\\--0-5-0-6-0-7-|

The wee end bit is played on guitar but sounds cool on bass

Verse                                                     


G|---------------------------------------------------------------------------|
D|-------9-------9-------9-------9-------7-------7-------7-------7-----------|
A|---------------------------------------------------------------------------|
E|---7-7---0-7-7---0-7-7---0-7-7---0-5-5---0-5-5---0-5-5---0-5-5-------------|

G|---------------------------------------------------------------------------|
D|-------9-------9-------9-------9-------7-------7---7\\---------------------|
A|---------------------------------------------------------------------------|
E|---7-7---0-7-7---0-7-7---0-7-7---0-5-5---0-5-5---5-5\\---------------------|

1st Chorus

G|---------------------------------------------------------------------------|
D|-----7-----5-------------7-----5------------7-----5------------------------|
A|---------------------------------------------------------------------------|
E|---5---0-3---0-2~--3-2-5---0-3---0-2~-3-2-5---0-3---0-2~-3-2---------------|

G|---------------------------------------------------------------------------|
D|-----7-----5---------------------------------------------------------------|
A|---------------------------------------------------------------------------|
E|---5---0-3---0-2~-3-2-3-2-3-2-3--—21\0-------------------------------------|

Play Verse Again

2nd Chorus + middle section

G|---------------------------------------------------------------------------|
D|-----7-----5------------7-----5------------7-----5-------------------------|
A|---------------------------------------------------------------------------|
E|---5---0-3---0-2~-3-2-5---0-3---0-2~-3-2-5---0-3---0-2~-3-2----------------|

G|--------------------------------------------------7-/-9-7------------------|
D|-----7-----5----------------------------7-/-9-7-----------9-7--------------|
A|------------------------------------------------9-------------9------------|
E|---5---0-3---0-2~-3-2-3-2-3-3-2-3~~~--5------------------------------------|
				^^^^^^^^^^^^^^^^^^^^^^^^^^^
				Slows right down here
				(not 100%)

G|---------------------------------------------------------------------------|
D|---------------------------------------------------------------------------|
A|---------------------------------------------------------------------------|
E|-7-7-7-7-7-7-7-7-7-7-7-7-7-7-7-7-5-5-5-5-5-5-5-5-5-5-5-5-5-5-5-5-----------|

G|---------------------------------------------------------------------------|
D|---------------------------------------------------------------------------|
A|---------------------------------------------------------------------------|
E|-7-7-7-7-7-7-7-7-7-7-7-7-7-7-7-7-5-5-5-5-5-5-5-5-5~~-----------------------|

Last Verse/Outro

G|---------------------------------------------------------------------------|
D|-------9-------9-------9-------9-------7-------7-------7-------7-----------|
A|---------------------------------------------------------------------------|
E|---7-7---0-7-7---0-7-7---0-7-7---0-5-5---0-5-5---0-5-5---0-5-5-------------|

G|---------------------------------------------------------------------------|
D|-------9-------9-------9-------9-------7-------7---7\\---------------------|
A|---------------------------------------------------------------------------|
E|---7-7---0-7-7---0-7-7---0-7-7---0-5-5---0-5-5---5-5\\---0-5-6-7~~---------|




And that’s yer lot, cheer. . . rate and such.
Any peoblems just say in a comment and I'll change it if need be.




| /  slide up
| \  slide down
| h  hammer-on
| p  pull-off
| ~  vibrato
| +  harmonic
| x  Mute note
===============================================================================
            
Submit corrections



        Blinding lessons Hard to play? Try these video lessons and learn fast Blinding lessons
        
↑ Back to top | Tablatures and chords for acoustic guitar and electric guitar, ukulele, drums are parodies/interpretations of the original songs. You may use it for private study, scholarship, research or language learning purposes only