» » »

Babyshambles - Blinding Tabs

Artists:  A B C D E F G H I J K L M N O P Q R S T U V W X Y Z # 

Blinding Tabs

(ver. 1) Click to play this song!
Babyshambles
 Rating:
4/5 (9 votes)


 Blinding lessons Tabs too difficult? Try these video lessons and learn fast
 
                
                      
intro
Guitar 1
 Bm                                   Am
|------7--------7--------7--------7--------5--------55--------|
|------7--------7--------7--------7--------5--------55--------|
|------7--------7--------7--------7--------5--------55--------|
|------9--------9--------9--------9--------7--------77--------|
|---99-9-----99-9-----99-9-----99-9-----77-7-----77-77--------|
|---77-7---7-77-7---7-77-7---7-77-7---5-55-5---5-55-55----5060|
                                                          "come and see the"
guitar 2
 Bm                                   Am
|------7--------7--------7-----7--6-------5--------55--------|
|------7--------7--------7-----7--6-------5--------55--------|
|------7--------7--------7-----7--6-------5--------55--------|
|------9--------9--------9-----9--8-------7--------77--------|
|---99-9-----99-9-----99-9-----9--8----77-7-----77-77--------|
|-7-77-7---7-77-7---7-77-7-----7--6--5-55-5---5-55-55--------|

verse 1
guitar 1
Bm                                   Am
|------7--------7--------7--------7--------5--------5--------5--------5|
|------7--------7--------7--------7--------5--------5--------5--------5|
|------7--------7--------7--------7--------5--------5--------5--------5|
|------9--------9--------9--------9--------7--------7--------7--------7|
|---99-9-----99-9-----99-9-----99-9-----77-7-----77-7-----77-7-----77-7|
|-7-77-7---7-77-7---7-77-7---7-77-7---5-55-5---5-55-5---5-55-5---5-55-5|

guitar 2
Bm                                   Am
|------7--------7--------7--------7--------5--------5--------5--------5|
|------7--------7--------7--------7--------5--------5--------5--------5|
|------7--------7--------7--------7--------5--------5--------5--------5|
|------9--------9--------9--------9--------7--------7--------7--------7|
|------9--------9--------9--------9--------7--------7--------7--------7|
|------7--------7--------7--------7--------5--------5--------5--------5|
"Blinding its the blinding"  "its the last that you'll ever see"

guitar 1
Bm                                   Am
|------7--------7--------7--------7--------5--------55-----------------|
|------7--------7--------7--------7--------5--------55-----------------|
|------7--------7--------7--------7--------5--------55-----------------|
|------9--------9--------9--------9--------7--------77-----------------|
|---99-9-----99-9-----99-9-----99-9-----77-7-----77-77-----------------|
|-7-77-7---7-77-7---7-77-7---7-77-7---5-55-5---5-55-55-----------------|

guitar 2
Bm                                   Am
|------7--------7--------7--------7--------5--------55-----------------|
|------7--------7--------7--------7--------5--------55-----------------|
|------7--------7--------7--------7--------5--------55-----------------|
|------9--------9--------9--------9--------7--------77-----------------|
|------9--------9--------9--------9--------7--------77-----------------|
|------7--------7--------7--------7--------5--------55-----------------|
"But you might be happyor, happyer" "Than youve ever been"

guitar 1
Bm                                   Am
|------7--------7--------7--------7--------5--------5--------5--------5|
|------7--------7--------7--------7--------5--------5--------5--------5|
|------7--------7--------7--------7--------5--------5--------5--------5|
|------9--------9--------9--------9--------7--------7--------7--------7|
|---99-9-----99-9-----99-9-----99-9-----77-7-----77-7-----77-7-----77-7|
|-7-77-7---7-77-7---7-77-7---7-77-7---5-55-5---5-55-5---5-55-5---5-55-5|

guitar 2
Bm                                   Am
|------7--------6--------5--------5--------5--------5--------5--------5|
|------7--------6--------5--------5--------5--------5--------5--------5|
|------7--------6--------5--------5--------5--------5--------5--------5|
|------9--------8--------7--------7--------7--------7--------7--------7|
|------9--------8--------7--------7--------7--------7--------7--------7|
|------7--------8--------5--------5--------5--------5--------5--------5|
"So let me show the blinding"  "its the last that you'll ever see"

guitar 1
Bm                                   Am
|------7--------7--------7--------7--------5--------55-----------------|
|------7--------7--------7--------7--------5--------55-----------------|
|------7--------7--------7--------7--------5--------55-----------------|
|------9--------9--------9--------9--------7--------77-----------------|
|---99-9-----99-9-----99-9-----99-9-----77-7-----77-77-----------------|
|-7-77-7---7-77-7---7-77-7---7-77-7---5-55-5---5-55-55-----------------|

                                    
guitar 2
Bm                                   Am
|------7--------6--------5--------5-------7---------55-------------|
|------7--------6--------5--------5-----7---------5----------------|
|------7--------6--------5--------5--------------7-----------------|
|------9--------8--------7--------7--------------------------------|
|------9--------8--------7--------7--------------------------------|
|------7--------8--------5--------5--------------------------------|
"But you might be freeor, freeer" "Freor than youve ever been"

Chorus
guitar 1
   B      G    F#  G F#
|--7-7---3-3---2-2--3-2-|
|--7-7---3-3---2-2--3-2-|
|--8-8---4-4---3-3--4-3-|
|--9-9---5-5---4-4--5-4-|
|--9-9---5-5---4-4--5-4-|
|--7-7---3-3---2-2--3-2-|

guitar 2
   B     G     F#  G F#
|--7-7--333333-2-2--3-2--|
|--7-7--333333-2-2--3-2--|
|--8-8--444444-3-3--4-3--|
|--9-9--555555-4-4--5-4--|
|--9-9--555555-4-4--5-4--|
|--7-7--333333-2-2--3-2--|

Repeat 2 times then
guitar 1
   B      G    F#   G F#G F#G F#B
|--7-7---3-3---2-2--3-2-3-2-3-2-7|
|--7-7---3-3---2-2--3-2-3-2-3-2-7|
|--8-8---4-4---3-3--4-3-4-3-4-3-7|
|--9-9---5-5---4-4--5-4-5-4-5-4-9|
|--9-9---5-5---4-4--5-4-5-4-5-4-9|
|--7-7---3-3---2-2--3-2-3-2-3-2-7|

guitar 2
   B      G    F#   G F#G F#G F#B
|--7-7---3-3---2-2--3-2-3-2-3-2-7|
|--7-7---3-3---2-2--3-2-3-2-3-2-7|
|--8-8---4-4---3-3--4-3-4-3-4-3-7|
|--9-9---5-5---4-4--5-4-5-4-5-4-9|
|--9-9---5-5---4-4--5-4-5-4-5-4-9|
|--7-7---3-3---2-2--3-2-3-2-3-2-7|

Solo
|--------------------------------------------|
|------------------------------------------10|
|-9b-9b999997-797-7-9b9b9999999r-9-7-9-7-9---|
|------------9---9---------------------------|
|--------------------------------------------|
|--------------------------------------------|

verse 2
guitar 1
Bm                                   Am
|------7--------7--------7--------7--------5--------5--------5--------5|
|------7--------7--------7--------7--------5--------5--------5--------5|
|------7--------7--------7--------7--------5--------5--------5--------5|
|------9--------9--------9--------9--------7--------7--------7--------7|
|---99-9-----99-9-----99-9-----99-9-----77-7-----77-7-----77-7-----77-7|
|-7-77-7---7-77-7---7-77-7---7-77-7---5-55-5---5-55-5---5-55-5---5-55-5|

guitar 2
|--------------7t---------------7t---------------5t-5t-----------------|
|------------7----------------7----------------5-----------------------|
|----------9----------------9----------------7-------------------------|
|----------------------------------------------------------------------|
|----------------------------------------------------------------------|
|----------------------------------------------------------------------|

Repeat twice
then chorus
post chorus

|----------------------9-9t--7---------------------------------|
|-----------------7-10-----------------------------------------|
|---9--7-------------------------------------------------------|
|--------9-9b------------------------7--9-11b-9--7--9----------|
|----------------------------------9---------------------------|
|--------------------------------------------------------------|

then
Guitar 1
|------------------------------|
|------------------------------|
|------------------------------|
|9-------7-------9-------7-----|
|9--X16--7--X16--9--X16--7--X8-|
|7-------5-------7-------5-----|

guitar 2
|------------------------------|
|------------------------------|
|9-------7-------9-------7-----|
|-fast picking change at ------|
|----------chord change--------|
|------------------------------|

Verse 3
guitar 1
Bm                                   Am
|------7--------7--------7--------7--------5--------5--------5--------5|
|------7--------7--------7--------7--------5--------5--------5--------5|
|------7--------7--------7--------7--------5--------5--------5--------5|
|------9--------9--------9--------9--------7--------7--------7--------7|
|---99-9-----99-9-----99-9-----99-9-----77-7-----77-7-----77-7-----77-7|
|-7-77-7---7-77-7---7-77-7---7-77-7---5-55-5---5-55-5---5-55-5---5-55-5|

guitar 2
|----------------------------------------------------------------------|
|----------------------------------------------------------------------|
|-9b--9b---9b--9b---9b--9b---9b--9b---9b--9b---9b--9b---9b--9b---9b--9b|
|----------------------------------------------------------------------|
|----------------------------------------------------------------------|
|----------------------------------------------------------------------|

guitar 1
Bm                                   Am                   Am A#m B
|------7--------7--------7--------7--------5--------55-----5--6--7-----|
|------7--------7--------7--------7--------5--------55-----5--6--7-----|
|------7--------7--------7--------7--------5--------55-----5--6--7-----|
|------9--------9--------9--------9--------7--------77-----7--8--9-----|
|---99-9-----99-9-----99-9-----99-9-----77-7-----77-77-----7--8--9-----|
|-7-77-7---7-77-7---7-77-7---7-77-7---5-55-5---5-55-55-----5--6--7-----|

guitar 2
|-------------------------------------7--------------7-----------------|
|----------------------------------------------------------------------|
|-9b--9b---9b--9b---9b--9b---9b--9b------7--9--7--9--------------------|
|----------------------------------------------------------------------|
|----------------------------------------------------------------------|
|----------------------------------------------------------------------|
            
Submit corrections



        Blinding lessons Hard to play? Try these video lessons and learn fast Blinding lessons
        
↑ Back to top | Tablatures and chords for acoustic guitar and electric guitar, ukulele, drums are parodies/interpretations of the original songs. You may use it for private study, scholarship, research or language learning purposes only