» » »

B 52s - Strobe Light Tabs

Artists:  A B C D E F G H I J K L M N O P Q R S T U V W X Y Z # 

Strobe Light Tabs

(ver. 1) Click to play this song!
B 52s
 Rating:
4/5 (4 votes)
                This song is pritty simple most of the way through so here goes.
The song is based around the scale of A pentatonic.

The main part is just an A note / A major chord then E note / E major chord

Heres the guitar part

   | x alot |            the synth part x alot
e|--------------------|------------------------|
B|--------------------|------------------------|
G|--------------------|---6h7~6----------------|
D|--------------------|--7---------------------|
A|--------------------|------------------------|
E|-3/5555555555555555-|------------------------|

then
   make love..  undernieth ..
e|------------------------------------|
B|------------------------------------|
G|------------------------------------|
D|-9-9~--9-7--------------------------|
A|-9-9~--9-7----12-11-10-9-8-7-6-5-4--|
E|-7-7~--7-5----10-9--8--7-6-5-4-3-2--|

solo !

e|--5555555555555555-----------------------------------------|
B|--5555555533334444--5-8^ x 3--98765432-555555555555-58 x 4-|
G|-----------------------------------------------------------|
D|-----------------------------------------------------------|
A|-----------------------------------------------------------|
E|-----------------------------------------------------------|
 
   | acsent on every |
   |  3rd bend |
e|-----------------------------|
B|--5-8^ x 12--98765432--------|
G|-----------------------6h7~6-|
D|----------------------7------|
A|-----------------------------|
E|-----------------------------|

bit of the solo repeated at at !

Have fun, feedback if you want i welcome any corrections :)
            
Submit corrections

↑ Back to top | Tablatures and chords for acoustic guitar and electric guitar, ukulele, drums are parodies/interpretations of the original songs. You may use it for private study, scholarship, research or language learning purposes only