» » »

Avicii - The Nights Tabs

Artists:  A B C D E F G H I J K L M N O P Q R S T U V W X Y Z # 

The Nights Tabs

(ver. 2) Click to play this song!
Avicii
 Rating:
4/5 (4 votes)

 The Nights  lessons Tabs too difficult? Try these video lessons and learn fast
 
                verse
e|-----------------------------------------------------|
b|-----------------------------------------------------|
g|-----------------------------------------------------|
d|-8-8-8-8--8-8-8--8-8-8-8--8-8-8--8-6---6---6-8-6-----|
a|-------------------------------------9---9-------9-6-|
e|-----------------------------------------------------|

e|-----------------------------------------------------|
b|-----------------------------------------------------|
g|-----------------------------------------------------|
d|-8-8-8-8--8-8-8--8-8-8-8--8-8-8--8-6---6---6-8-6-----|
a|-------------------------------------9---9-------9-9-|
e|-----------------------------------------------------|

e|----------------------------------------------------|
b|----------------------------------------------------|
g|----------------------------------------------------|
d|--------------------6-8-8-8-6-8---6---6---6-8-6-----|
a|-9-9-8-6-9--9-9-9-9-------------9---9---9-------9-6-|
e|----------------------------------------------------|

e|----------------------------------------------------|
b|----------------------------------------------------|
g|--------------------6-8-10-8-6----------------------|
d|-------------------------------8--8-8-8-----8-8---6-|
a|-9-9-8-6-9--9-9-9-9---------------------9-9-----9---|
e|----------------------------------------------------|

chorus
e|------------------------------------------|
b|-------------6----------------------------|
g|-----6-8-6-8---8-6---------------------6--|
d|---8---------------8---8-8---6---6---8----|
a|-9-------------------------9---9---9------|
e|------------------------------------------|

e|------------------------------------------|
b|-------------6----------------------------|
g|-----6-8-6-8---8-6----------------6-8-----|
d|---8---------------8---8-8---6-8------8---|
a|-9-------------------------9--------------|
e|------------------------------------------|

instrumental
e|------------|  |------------|
b|-----7--7-7-|  |----7-7-9-6-|
g|-6-8--------|  |6-8---------|
d|------------|X7|------------|
a|------------|  |------------|
e|------------|  |------------|            
Submit corrections


        The Nights  lessons Hard to play? Try these video lessons and learn fast The Nights  lessons
        
↑ Back to top | Tablatures and chords for acoustic guitar and electric guitar, ukulele, drums are parodies/interpretations of the original songs. You may use it for private study, scholarship, research or language learning purposes only