» » »

At The Drive-In - Napoleon Tabs

Artists:  A B C D E F G H I J K L M N O P Q R S T U V W X Y Z # 

Napoleon Tabs

(ver. 1) Click to play this song!
At The Drive-In
 Rating:
4/5 (4 votes)


 Napoleon lessons Tabs too difficult? Try these video lessons and learn fast
 
                This is the lead guitar part played throughout.
Usual tuning - you only need the bottom 2 strings(B&E)this is 
how far i've got with it
-0-0-3-7-10-7------------------------------------------------
-------------------------------------------------------------
repeat 16 times before first verse and continue during
Guitar Interlude -
-0-0-3-0-0-3-0-0-3-0-0-3-0---3-----3-----3-----3------10-----
---------------------------3---3-3---3-3---3-3----8-8----8-8-


10---10----10-10-14-10--12-10---12-10---------------
-8-8---8-8---8-7---7-----8-------8-------8----------

Tab for second verse: 
-0-3-7-3---3---3-10-3------10-----10-----10-----10--
---------3---3---------8-8----8-8----8-8----8-8-----


-----10-14-10--12-10---12-10------------------------
-8-7---7-----8-------8-------8----------------------
That’s all the tabs needed in the whole song u just need to listen 
to it to work out which bit is played next
            
Submit corrections



        Napoleon lessons Hard to play? Try these video lessons and learn fast Napoleon lessons
        
↑ Back to top | Tablatures and chords for acoustic guitar and electric guitar, ukulele, drums are parodies/interpretations of the original songs. You may use it for private study, scholarship, research or language learning purposes only