» » »

Attack Attack - You And Me Bass

Artists:  A B C D E F G H I J K L M N O P Q R S T U V W X Y Z # 

You And Me Bass

(ver. 1) Click to play this song!
Attack Attack
 Rating:
4/5 (4 votes)


 You And Me lessons Tabs too difficult? Try these video lessons and learn fast
 
                                                    You And Me - Attack! Attack!


Intro

G |--------|--------|--------|--------|
D |--------|--------|--------|--------|x 2
A |--------|--------|--------|--------|
E |77777777|77777777|33333333|33333---|

Verse Part 1

G |--------|--------|--------|--------|
D |--------|--------|---54-^-|--------|x 2
A |--57--^-|--57--^-|--5---5-|--5---45|
E |77--7-7-|/7--5-5-|-3------|-3-355--|

Verse Part 2

G |--------|--------|--------|--------|
D |--------|--------|--5-54--|--5-54--|x 2
A |--------|--------|--------|--------|
E |7-7-7-7-|7-7-7-7-|-3-3----|-3-3----|

Pre-Chorus

G |--------|--------|--------|--------|--------|--------|
D |--------|--------|--------|--------|--------|--------|
A |--------|--------|--------|--------|--------|--------|
E |5--77--3|3---5--7|7--33---|5--77--3|3---5--7|7--33333|

Chorus

G |--------|--------|--------|--------|--------|--------|--------|----------|
D |--------|--------|--------|-----5--|--------|--------|--------|----------|
A |--------|--------|--------|------57|--------|--------|--------|1010997755|
E |77777777|77777777|33333333|33333---|55555555|55555557|33333333|----------|

Middle 8 Riff part 1 - (Also same for outro)

G |--------|--------|--------|--------|--------|--------|--------|--------|
D |--------|--------|--------|--------|--------|--------|--------|--------|
A |--------|-555----|--------|-555----|--------|-5555---|--------|-5555---|
E |77-22-33|-----555|77-22-33|-----55-|77-22-33|-----55-|77-22-33|-----55-|

Middle 8 Riff part 2 - 'This is how it goes..'

G |--------|--------|--------|--------|--------|--------|--------|--------|--------|
D |--------|--------|--------|--------|--------|--------|--------|--------|--------|
A |--------|-5555---|--------|-5555---|--------|-5555---|--------|-5555---|--------|
E |77722233|3----55-|77722233|3----55-|77722233|3----55-|77722233|3----555|7-------|
            
Submit corrections



        You And Me lessons Hard to play? Try these video lessons and learn fast You And Me lessons
        
↑ Back to top | Tablatures and chords for acoustic guitar and electric guitar, ukulele, drums are parodies/interpretations of the original songs. You may use it for private study, scholarship, research or language learning purposes only