» » »

Attack Attack - The Peoples Elbow Bass

Artists:  A B C D E F G H I J K L M N O P Q R S T U V W X Y Z # 

The Peoples Elbow Bass

(ver. 3) Click to play this song!
Attack Attack
 Rating:
4/5 (4 votes)


 The Peoples Elbow lessons Tabs too difficult? Try these video lessons and learn fast
 
                Im like 80% sure this is how it's played even for my first tab i spent about 3 hours 
to the song and this is what came out.
send me a message if you think its different and I'll fix it.
this is for the newer version of it off the album someday came suddenly.

during the 12/1, do it slowly but keep with the beat.
F|-------------------------------------------------------------------------|
C|-------------------------------------------------------------------------|
G|--------------------------12/1--------------------------------12/1-------|
C|0000000--------00000000~----------000000000--------00000000~-------------|

F|-------------------------------------------------------------------|
C|-------------------------------------------------------------------|
G|------------------------------------12/1----------1/12-------------|
C|888888888888855555555555555-000-000-------000-000--------(000-000)-|x2
                                                            ^^^ ^^^
                                                         after 2nd time

F|------------------------------------------------------------------|
C|------------------------------------------------------------------|
G|1212121212121212----------------121212121212121212----------------|
C|-----------------000000-000000---------------------00000-000-000--|

F|-----------------------------------------------------------------|
C|-----------------------------------------------------------------|
G|1212121212121212----------------121212121212121212---------------|
C|-----------------00000-000000----------------------00000-000-0~--|

F|-----------------------------------------------------------------|
C|-----------------------------------------------------------------|
G|-----------------------------------------------------------------|
C|00000000000000000000010101010101010101010555555555555--000000000-|

F|-----------------------------------------------------------------|
C|-----------------------------------------------------------------|
G|-----------------------------------------------------------------|
C|10101010101010101010/3333333333333-------------------------------|

F|---------------------------------------------------------------|
C|---------------------------------------------------------------|
G|------------------1212-1212-------------------------1212-1212--| x2
C|000-000---000-000--------------000-000------000-000------------|

F|-----------------------------------------------------------------|
C|-----------------------------------------------------------------|
G|-----------------------------------------------------------------|
C|00000000000000000001010101010101010101010555555555555--000000000-|

F|-----------------------------------------------------------------|
C|-----------------------------------------------------------------|
G|-----------------------------------------------------------------|
C|101010101010101010/3333333333333--------0~(after second time)----|
Repeat second time

F|----------------------------------------------------------------------|
C|----------------------------------------------------------------------|
G|-------------------------------12/1----------------------------12/1---|
C|0000000000-------000000000000~-------0000000000-----000000000~--------|
            
Submit corrections



        The Peoples Elbow lessons Hard to play? Try these video lessons and learn fast The Peoples Elbow lessons
        
↑ Back to top | Tablatures and chords for acoustic guitar and electric guitar, ukulele, drums are parodies/interpretations of the original songs. You may use it for private study, scholarship, research or language learning purposes only