» » »

Attack Attack - Stick Stickly Bass

Artists:  A B C D E F G H I J K L M N O P Q R S T U V W X Y Z # 

Stick Stickly Bass

(ver. 3) Click to play this song!
Attack Attack
 Rating:
4/5 (4 votes)


 Stick Stickly lessons Tabs too difficult? Try these video lessons and learn fast
 
                Stick Stickly by Attack Attack! 

First registered tab, second real one :D (I did Poker Face – Of Mice and Men bass)

Im doing this because the other tab is wrong, at least I think so. Refer to the 
first version of the guitar tab, that is what Im going off of, because its right. 

Drop C tuning

Intro
F|----------------------------|
C|----------------------------| x8
G|----------------------------|
C|-000-000-0-00--0-00-000-000-|

Chorus
F|----------------------------------------|
C|----------------------------------------| x4
G|----------------------------------------|
C|-8-88-888-888-888-10-1010-101010-555555-|

Then the WOO! Part
I like putting a bass drop in here, your choice.

Breakdown
F|-----------------|
C|-----------------|
G|-----------------| x4
C|-0--0---0--0-----|

Pre-Breakdown 2
F|----------------| I may be a tad off here, but not a lot.
C|----------------|
G|----------------|
C|-8-x16----10-x9-|

Breakdown 2
F|--------------------------------------|
C|--------------------------------------|
G|--------------------------------------|
C|-000-0~-000-0~-00000000-000-0~-000-0~-|




F|-----------------------|
C|-----------------------|
G|-----------------------|
C|-000-000-000-000-0-----|

F|--------------------------|
C|--------------------------|
G|--------------------------|
C|-000-000-000-000--000-/12-|
Play this breakdown twice,leave out the slide the second time through and continue 
with the triplets. 

Clean Vocals Part
F|-----------------------|
C|-----------------------|
G|-----------------------|
C|-8-x12---10-x12---5-x8-|

Chorus
F|----------------------------------------|
C|----------------------------------------| x4
G|----------------------------------------|
C|-8-88-888-888-888-10-1010-101010-555555-|

Breakdown 3 (Part with snare drum)
Wait for drum to play alone then:
F|--------------------|
C|--------------------|
G|--------------------|
C|-000-000-0000-0000--|

(Scream)

F|---------------------|
C|---------------------| x4
G|---------------------|
C|-000-000-0000-0000-0-|

Caleb’s Moment To Shine :D (Synth Part)
F|----------------------------------------|
C|----------------------------------------| x2
G|----------------------------------------|
C|-0-0-0-0--8-8-8-8--3-3-3-3--10-10-10-10-|


Outro
F|--------------------------|
C|--------------------------|
G|--------------------------|
C|-000-0~-000-0~-000-000-0~-|

Hope you enjoyed :D
            
Submit corrections



        Stick Stickly lessons Hard to play? Try these video lessons and learn fast Stick Stickly lessons
        
↑ Back to top | Tablatures and chords for acoustic guitar and electric guitar, ukulele, drums are parodies/interpretations of the original songs. You may use it for private study, scholarship, research or language learning purposes only