» » »

Aterciopelados - Florecita Rockera Tabs

Artists:  A B C D E F G H I J K L M N O P Q R S T U V W X Y Z # 

Florecita Rockera Tabs

(ver. 2) Click to play this song!
Aterciopelados
 Rating:
4/5 (4 votes)

 Florecita Rockera lessons Tabs too difficult? Try these video lessons and learn fast
 
                nicolaslp

INTRO / VERSE:

e--------------------------------------------------------------
B--------------------------------------------------------------
G-------12------------12----------12---12/10--12----12^13-12---
D---12----12----12------12----12----12-12/10----12-------------
A-10--10----10------10------10--10----------------10-----------
E--------------------------------------------------------------



1ª. Como echarte flores
    Si eres un jardín?
    Con esos olores 
    Me siento a morir

CHORUS w/Distortion 

e-------------------------------------|---------------------------------------
B-------------------------------------|---------------------------------------
G-------5-3-------5-3-------5-3-5-5---|------5-3-------5-3-------5-3-5-5------
D-5-5-0-5-3-5-5-0-5-3-5-5-0-5-3-5-5-3-|5-5-0-5-3-5-5-0-5-3-5-5-0-5-3-5-5-3--5-
A-5-5-0-3-1-5-5-0-3-1-5-5-0-3-1-3-3-3-|5-5-0-3-1-5-5-0-3-1-5-5-0-3-1-3-3-3--5-
E-3-3-0-----3-3-0-----3-3-0---------1-|3-3-0-----3-3-0-----3-3-0---------1--3-
					
    Florecita rockera
    Tu te lo buscaste
    Por despertar mi pasión
    Encendiste mi hoguera
    No tienes perdón
    Te pondré en una matera.


2ª. Cómo darte besos
    Mi flor de Alelí?
    Con esos colores
    Yo paloidecí.

CHORUS...

3ª. Cómo transplantarte 
    A mi corazón?
    Cómo no cortarte
    Desde la raíz?

CHORUS...

Bridge:  Gm - A - D ( Durante todo el Bridge. )

  Gm  A  D
e--3--5--10----   Mira que tu tienes el candor
B--3--5--10----   A flor de piel
G--4--6--11----   Y además siempre estás
D--5--7--12----   Fresca como una lechuga.
A--5--7--12----   Soy el picaflor
E--3--5--10----   Que chupará toda tu miel ( bis ) Soy el picaflor.

CHORUS...

OUTRO: Al igual que en el intro.
 
(las notas del Coro).

   G5	   C5  A#5  F5 		
e-----------------------
B-----------------------
G-----------5---3-------
D---5---0---5---3---3---
A---5---0---3---1---3---
E---3---0-----------1---


END
            
Submit corrections


        Florecita Rockera lessons Hard to play? Try these video lessons and learn fast Florecita Rockera lessons
        
↑ Back to top | Tablatures and chords for acoustic guitar and electric guitar, ukulele, drums are parodies/interpretations of the original songs. You may use it for private study, scholarship, research or language learning purposes only