» » »

A Skylit Drive - Wires And The Concept Of Breathing Bass

Artists:  A B C D E F G H I J K L M N O P Q R S T U V W X Y Z # 

Wires And The Concept Of Breathing Bass

(ver. 3) Click to play this song!
A Skylit Drive
 Rating:
4/5 (4 votes)


 Wires And The Concept Of Breathing lessons Tabs too difficult? Try these video lessons and learn fast
 
                Picked Bass

           "Won't you scream..."
             E  E  E  H        E     E  E  E  E  E  E  E  E   
G||-------|-----------------------|--------------------------|
D||-------|-----------------------|--------------------------|
A||-------|-----------------------|--------------------------|
D||-------|--8-----8-----------0--|--L--0--0--0--0--0--0--0--|
 
 
  E  E  E  E  E  E  E  E     E  E  E  E  E  E  E  E   
--------------------------|--------------------------|
--------------------------|--------------------------|
-----------------------5--|--L--5--5--5--5--5--5--5--|
--0--0--0--0--0--0--------|--------------------------|
 
 
  E  E  E  E  E  E  E  E     E  E  E  E  E  E  E  E   
--------------------------|--------------------------|
--------------------------|--------------------------|
--7--7--7--7--8--8--8-----|--------------------------|
-----------------------8--|--L--8--8--8--8--8--8--8--|
 
 
  E  E  E  E  E  E  E  E     E  E  E  E  E  E  E  E   
--------------------------|--------------------------|
--------------------------|--------------------------|
--------------------------|--------------------------|
--8--8--8--8--8--8-----8--|--L--8--8--8--8--8--8--8--|
 

                           "As I lay down..." 
  E  E  E  E  E  E  E  E     W                   W                 
--------------------------|-------------------|-------------------|
--------------------------|-------------------|-------------------|
--------------------------|-------------------|-------------------|
--8--8--8--8--8--8--8--8--|--8----------------|--L----------------|
 

                                         "The hiding place..." 
  W                   H        H           H        E  E  Q                 
-------------------|--------------------|----------------------|-----------|
-------------------|--------------------|----------------------|-----------|
-------------------|--------------------|----------------------|-----------|
--8----------------|--L-----------------|--0--------0--0-------|-----------|
 
 
  H        E  E  Q                   H        E  E  Q                 
----------------------|-----------|----------------------|-----------|
----------------------|-----------|----------------------|-----------|
----------------------|-----------|----------------------|-----------|
--0--------0--0-------|-----------|--8--------8--8-------|-----------|
 
 
  H        E  E  Q       E   E   E   E   E   E   E   E   
----------------------|---------------------------------|
----------------------|---------------------------------|
----------------------|---------------------------------|
--8--------8--8-------|-----10--10--10--10--10--10--10--|
 

"You sent me..." 
  E  E  E  E  E  E  E  E     E  E  E  E  E  E  E  E   
--------------------------|--------------------------|
--------------------------|--------------------------|
--------------------------|--------------------------|
--0--0--0--0--0--0--0--0--|--8--8--8--8--8--8--8--8--|
 
 
   E   E   E   E   E   E   E   E      E   E   E   E   E   E   E   E   
----------------------------------|----------------------------------|
----------------------------------|----------------------------------|
----------------------------------|----------------------------------|
--10--10--10--10--10--10--10--10--|--10--10--10--10--10--10--10--10--|
 
 
  E  E  E  E  E  E  E  E     E  E  E  E  E  E  E  E   
--------------------------|--------------------------|
--------------------------|--------------------------|
--------------------------|--------------------------|
--0--0--0--0--0--0--0--0--|--8--8--8--8--8--8--8--8--|
 
 
   E   E   E   E   E   E   E   E      E   E   E   E   E   E   E   E   
----------------------------------|----------------------------------|
----------------------------------|----------------------------------|
----------------------------------|----------------------------------|
--10--10--10--10--10--10--10--10--|--10--10--10--10--10--10--10--10--|
 
 
  E  E  E  E  E  E  E  E     E  E  E  E  E  E  E  E   
--------------------------|--------------------------|
--------------------------|--------------------------|
--------------------------|--------------------------|
--0--0--0--0--0--0--0--0--|--8--8--8--8--8--8--8--8--|
 
 
   E   E   E   E   E   E   E   E      E   E   E   E   E   E   E   E   
----------------------------------|----------------------------------|
----------------------------------|----------------------------------|
----------------------------------|----------------------------------|
--10--10--10--10--10--10--10--10--|--10--10--10--10--10--10--10--10--|
 
 
  E  E  E  E  E  E  E  E     E  E  E  E  E  E  E  E   
--------------------------|--------------------------|
--------------------------|--------------------------|
--------------------------|--------------------------|
--0--0--0--0--0--0--0--0--|--8--8--8--8--8--8--8--8--|
 
 
   E   E   E   E   E   E   E   E      E   E   E   E   E   E   E   E   
----------------------------------|----------------------------------|
----------------------------------|----------------------------------|
----------------------------------|----------------------------------|
--10--10--10--10--10--10--10--10--|--10--10--10--10--10--10--10--10--|
 

"Hold my breath..." 
  Q.     Q.      Q        E  Q.      E   E   E  E     Q.     Q.      Q     
----------------------|----------------------------|----------------------|
----------------------|----------------------------|----------------------|
----------------------|----------------------------|----------------------|
--8------0------10----|---L--8------10--10--10-----|--8------0------10----|
 


                             "I hold it..." 
   E  Q.      E   E   E  E     E  E  E  E  E  E  E  E   
----------------------------|--------------------------|
----------------------------|--------------------------|
----------------------------|--------------------------|
---L--8------10--10--10-----|--0--0--0--0--0--0--0--0--|
 
 
  E  E  E  E  E  E  E  E      E   E   E   E   E   E   E   E   
--------------------------|----------------------------------|
--------------------------|----------------------------------|
--------------------------|----------------------------------|
--0--0--0--0--0--0--0--0--|--10--10--10--10--10--10--10--10--|
 
 
   E   E   E   E   E   E   E   E     Q.     Q.     Q       W                 
----------------------------------|---------------------|-------------------|
----------------------------------|---------------------|-------------------|
----------------------------------|---------------------|-------------------|
--10--10--10--10--10--10--10--10--|--8------0------8----|--L----------------|
 

"Won't you scream..." 
  E  E  E  H        E     E  E  E  E  E  E  E  E     E  E  E  E  E  E  E  E   
-----------------------|--------------------------|--------------------------|
-----------------------|--------------------------|--------------------------|
-----------------------|--------------------------|-----------------------5--|
--8-----8-----------0--|--L--0--0--0--0--0--0--0--|--0--0--0--0--0--0--------|
 
 
  E  E  E  E  E  E  E  E     E  E  E  E  E  E  E  E   
--------------------------|--------------------------|
--------------------------|--------------------------|
--L--5--5--5--5--5--5--5--|--7--7--7--7--8--8--8-----|
--------------------------|-----------------------8--|
 
 
  E  E  E  E  E  E  E  E     E  E  E  E  E  E  E  E   
--------------------------|--------------------------|
--------------------------|--------------------------|
--------------------------|--------------------------|
--L--8--8--8--8--8--8--8--|--8--8--8--8--8--8-----8--|
 

                                                      "And I regret..."
  E  E  E  E  E  E  E  E     E  E  E  E  E  E  E  E     W                 
--------------------------|--------------------------|-------------------|
--------------------------|--------------------------|-------------------|
--------------------------|--------------------------|-------------------|
--L--8--8--8--8--8--8--8--|--8--8--8--8--8--8--8--8--|--8----------------|
 
 
  W                   W                   H        H         
-------------------|-------------------|--------------------|
-------------------|-------------------|--------------------|
-------------------|-------------------|--------------------|
--L----------------|--8----------------|--L-----------------|
 

"Searching for my plans..." 
  H        E  E  Q                   H        E  E  Q                 
----------------------|-----------|----------------------|-----------|
----------------------|-----------|----------------------|-----------|
----------------------|-----------|----------------------|-----------|
--0--------0--0-------|-----------|--0--------0--0-------|-----------|
 
 
  H        E  E  Q                   H        E  E  Q     
----------------------|-----------|----------------------|
----------------------|-----------|----------------------|
----------------------|-----------|----------------------|
--8--------8--8-------|-----------|--8--------8--8-------|
 

                                  "You sent me..." 
  E   E   E   E   E   E   E   E     E  E  E  E  E  E  E  E   
---------------------------------|--------------------------|
---------------------------------|--------------------------|
---------------------------------|--------------------------|
-----10--10--10--10--10--10--10--|--0--0--0--0--0--0--0--0--|
 
 
  E  E  E  E  E  E  E  E      E   E   E   E   E   E   E   E   
--------------------------|----------------------------------|
--------------------------|----------------------------------|
--------------------------|----------------------------------|
--8--8--8--8--8--8--8--8--|--10--10--10--10--10--10--10--10--|
 
 
   E   E   E   E   E   E   E   E     E  E  E  E  E  E  E  E   
----------------------------------|--------------------------|
----------------------------------|--------------------------|
----------------------------------|--------------------------|
--10--10--10--10--10--10--10--10--|--0--0--0--0--0--0--0--0--|
 
 
  E  E  E  E  E  E  E  E      E   E   E   E   E   E   E   E   
--------------------------|----------------------------------|
--------------------------|----------------------------------|
--------------------------|----------------------------------|
--8--8--8--8--8--8--8--8--|--10--10--10--10--10--10--10--10--|
 
 
   E   E   E   E   E   E   E   E     E  E  E  E  E  E  E  E   
----------------------------------|--------------------------|
----------------------------------|--------------------------|
----------------------------------|--------------------------|
--10--10--10--10--10--10--10--10--|--0--0--0--0--0--0--0--0--|
 
 
  E  E  E  E  E  E  E  E      E   E   E   E   E   E   E   E   
--------------------------|----------------------------------|
--------------------------|----------------------------------|
--------------------------|----------------------------------|
--8--8--8--8--8--8--8--8--|--10--10--10--10--10--10--10--10--|
 
 
   E   E   E   E   E   E   E   E     E  E  E  E  E  E  E  E   
----------------------------------|--------------------------|
----------------------------------|--------------------------|
----------------------------------|--------------------------|
--10--10--10--10--10--10--10--10--|--0--0--0--0--0--0--0--0--|
 
 
  E  E  E  E  E  E  E  E      E   E   E   E   E   E   E   E   
--------------------------|----------------------------------|
--------------------------|----------------------------------|
--------------------------|----------------------------------|
--8--8--8--8--8--8--8--8--|--10--10--10--10--10--10--10--10--|
 

                                   "Let go of the wires!" 
   E   E   E   E   E   E   E   E     S S S S S S S S E  Q.      
----------------------------------|----------------------------|
----------------------------------|----------------------------|
----------------------------------|----------------------------|
--10--10--10--10--10--10--10--10--|--0-0-0-0-0-0-0-0-0---------|
 
 
  E  S S E  E  S S S S E  E     S S S S S S S S E  Q.      
-----------------------------|----------------------------|
-----------------------------|----------------------------|
-----------------------------|----------------------------|
-----0-0-0-----0-0-0-0-0-----|--0-0-0-0-0-0-0-0-0---------|
 
 
  E  S S E  E  S S S S E  E     S S S S S S S S H         
-----------------------------|---------------------------|
-----------------------------|---------------------------|
-----------------------------|---------------------------|
-----0-0-0-----0-0-0-0-0-----|--0-0-0-0-0-0-0-0-0--------|
 
 
  E  S S Q    S S S S Q       S S S S S S S S H         
---------------------------|---------------------------|
---------------------------|---------------------------|
---------------------------|---------------------------|
--L--0-0-0----0-0-0-0-0----|--0-0-0-0-0-0-0-0-0--------|
 
 
  E  S S Q    S S S S Q       S S S S S S S S H           W                 
---------------------------|---------------------------|-------------------|
---------------------------|---------------------------|-------------------|
---------------------------|---------------------------|-------------------|
--L--0-0-0----0-0-0-0-0----|--0-0-0-0-0-0-0-0-0--------|--L----------------|
 
 
  W                   W                   W                  
-------------------|-------------------|-------------------||
-------------------|-------------------|-------------------||
-------------------|-------------------|-------------------||
--L----------------|--L----------------|--L----------------||
 
 
 
 
Duration Legend
---------------
W - whole
H - half
Q - quarter
E - 8th
S - 16th
T - 32nd
X - 64th
. - note dotted
|-n-|  - n-tuplets
 
 
Tablature Legend
----------------
L - tied note
x - dead note
g - grace note
(n) - ghost note
> - accentuded note
NH - natural harmonic
AH - artificial harmonic
TH - tapped harmonic
SH - semi harmonic
PH - pitch harmonic
h - hammer on
p - pull off
b - bend
br - bendRelease
pb - preBend
pbr - preBendRelease
brb - bendReleaseBend
\n/ - tremolo bar dip
\n - tremolo bar dive
-/n - tremolo bar Release up
/n\ - tremolo bar inverted dip
/n - tremolo bar return
-\n - tremolo bar Release down
S - shift slide
s - legato slide
/ -  slide into from below or out of upwards
\ -  slide into from above or out of downwards
~ - vibrato
W - wide vibrato
tr - tril'
TP - tremolo picking
T - tapping
S - slap
P - pop
< - fade in
^ - brush up
v - brush down
            
Submit corrections



        Wires And The Concept Of Breathing lessons Hard to play? Try these video lessons and learn fast Wires And The Concept Of Breathing lessons
        
↑ Back to top | Tablatures and chords for acoustic guitar and electric guitar, ukulele, drums are parodies/interpretations of the original songs. You may use it for private study, scholarship, research or language learning purposes only