» » »

A Skylit Drive - Past The Love The Memories Bass

Artists:  A B C D E F G H I J K L M N O P Q R S T U V W X Y Z # 

Past The Love The Memories Bass

(ver. 1) Click to play this song!
A Skylit Drive
 Rating:
4/5 (4 votes)


 Past The Love The Memories lessons Tabs too difficult? Try these video lessons and learn fast
 
                ++++++++++++++++++++++++++++++++++++++++++++++++++++
| A Skylit Drive- The Past, The Love, The Memories |
++++++++++++++++++++++++++++++++++++++++++++++++++++

Drop D (DADG)

Its hard to define the rythm
so just listen to CD and you'll get it ;)


Intro
1.
G|---------------------------------------------------------------------------------|
D|---------------------------------------------------------------------------------|
A|-3333---3333-3333-3333-3333---3333-3333-5555-------------------------------------|--x2
D|-----------------------------------------------2202---2202-2202-0000---0000-0000-|

2.
G|-----------------------------------------|
D|-----------------------------------------|
A|-----------------------------------------|--x4
D|-2~--------2~--------0~--------0~--------|

Verse
"Let me take this time..."
3.
G|-------------------------------------------------------------------------|
D|-22222222-22222222-22222222-22222222-------------------------------------|
A|-------------------------------------33333333-33333333/55555555-55555555-|
D|-------------------------------------------------------------------------|

4.
G|-------------------------------------------------------------------------|
D|-22222222-22222222-22222222/55555555-------------------------------------|
A|-------------------------------------33333333-33333333/55555555-55555555-|
D|-------------------------------------------------------------------------|

Pre-Chorus
5.
G|-------------------------------------|
D|-22222222-22222222-22222222-22222222-|
A|-------------------------------------|
D|-------------------------------------|

Chorus
6.
G|-----------------------------------------------------------------|
D|-----------------------------------------------------------------|
A|-33333333-33333333-55555555-55555555-----------------------------|--x3
D|-------------------------------------2202-2202-------------------|

7.
G|-----------------------------------------------|
D|-----------------------------------------------|
A|-33333333-33333333-55555555-55555555-----------|--x4
D|-------------------------------------2202-2202-|

Outro
8.
G|-----------------------------------------|
D|-----------------------------------------|
A|-----------------------------------------|--x4
D|-2~--------2~--------0~--------0~--------|

Verse
9.
G|-------------------------------------------------------------------------|
D|-22222222-22222222-22222222-22222222-------------------------------------|
A|-------------------------------------33333333-33333333/55555555-55555555-|
D|-------------------------------------------------------------------------|

10.
G|-------------------------------------------------------------------------|
D|-22222222-22222222-22222222/55555555-------------------------------------|
A|-------------------------------------33333333-33333333/55555555-55555555-|
D|-------------------------------------------------------------------------|

Pre-Chorus
11.
G|-------------------------------------|
D|-22222222-22222222-22222222-22222222-|
A|-------------------------------------|
D|-------------------------------------|

Chorus
12.
G|-----------------------------------------------------------------|
D|-----------------------------------------------------------------|
A|-33333333-33333333-55555555-55555555-----------------------------|--x4
D|-------------------------------------2202-2202-------------------|

Bridge
13.
G|-----------------------------|
D|----------------------000000-| For lots of times
A|---------------333333--------|
D|-222222-000000---------------|

14.
G|-----------------------------|
D|-----------------------------|
A|---------------3~------------|
D|-2~-----0~-------------------|

+++++++++++++++++++++++++++++++++
| RaiLeff                       |
+++++++++++++++++++++++++++++++++
            
Submit corrections



        Past The Love The Memories lessons Hard to play? Try these video lessons and learn fast Past The Love The Memories lessons
        
↑ Back to top | Tablatures and chords for acoustic guitar and electric guitar, ukulele, drums are parodies/interpretations of the original songs. You may use it for private study, scholarship, research or language learning purposes only