» » »

As I Lay Dying - Forsaken Bass

Artists:  A B C D E F G H I J K L M N O P Q R S T U V W X Y Z # 

Forsaken Bass

(ver. 1) Click to play this song!
As I Lay Dying
 Rating:
4/5 (4 votes)


 Forsaken lessons Tabs too difficult? Try these video lessons and learn fast
 
                
                              Forsaken
                           As I Lay Dying
                         An Ocean Between Us

Future Ruler of the World

Tuning: Drop D (DADG)


Intro (0:16)

G --------------------------|
D --------------------------|
A --------------------------|  X3
D 8~~~~~~~~~~~0~~~~~3~~~~~~~

G ----------------------------------|
D ----------------------------------|
A ----------------------------------|
D 8~~~~~~~~~~~0~~~~~3~~~~~~~0~~~~~~~

(0:58)
G ------------|
D -------12/0-| (If you play with a pick, pick slide this, if u play with ur
A ------------|  fingers, press ur thumbnail and index finger nail together
D 0-0-0-0-----|  and slide like it is a pick.)
  . . . .

PREVERSE 1
G -----------------------------------------------------------------|
D -----------------------------------------------------------------|
A -----------------------------------------------------------------| X3
D 7-0-0-0-0-0-7-8-7-0-0-0-0-0-7-8-7-0-7-0-5-7-0-8-7-0-0-0-0-0-0-0--|

G -------------------------------------------------------------------------|
D -------------------------------------------------------------------------|
A -------------------------------------------------------------------------|
D 7-0-0-0-0-0-0-0----0-0-0-0-0-0-0-0----0-0-0-0-0-0-0-0----0-0-0-0-0-0-0-0-|

VERSE 1
G ------------------------------------|
D ------------------------------------|
A ------------------------5-8-5-0-8---|  X8
D 7-0-0-0-0-0-0-0-0-7-0-7-------------|

CHORUS
G ----------------------------------------------------------------|
D ----------------------------------------------------------------|
A ----------------------------------------------------------------|  X2
D 8888888888888888888888888888888800000000000000003333333333333333

G ---------------------------------------------------------------|
D ---------------------------------------------------------------|
A ---------------------------------------------------------------|
D 888888888888888888888888888888885555555555555555555555555555555

POST CHORUS
Variation 1
This is the actual bass part to the post chorus.
G -------------------------------------------------------|
D -------------------------------------------------------|
A -------------------------------------------------------|  X2
D 00000----00000000000-----00000----00000000000---0000---|

Variation 2
This is the much awesomer part that the guitar plays.  Play very fast.
G ------------------------------------------------------------|
D ------------------------------------------------------------|
A 7/8-7\5-7---8---8---10---10---8---8---0/5-7/8-7\5-7\5-7/8---|  X4
D ----------0---0---0----0----0---0---0-----------------------|

PREVERSE 2
G ------------|
D ------------|
A ------------|
D 0---0-0-0-0-|
  .   . . . .

G -----------------------------------------------------------------|
D -----------------------------------------------------------------|
A -----------------------------------------------------------------| X2
D 7-0-0-0-0-0-7-8-7-0-0-0-0-0-7-8-7-0-7-0-5-7-0-8-7-0-0-0-0-0-0-0--|

VERSE 2
G ---------------------------------------|
D ---------------------------------------|
A ---------------------------------------| X4
D 0---0---000000000---0---0---000000000--|

CHORUS X1
POST CHORUS X2

                When you play the post chorus a second time:

                Variation 1: play 2 more times, and let the last note of
                each set ring.

                Variation 2: play 4 more times.

BRIDGE
G ---------------------------------------|
D ---------------------------------------|
A ---------------------------------------|  X2
D 8~~~~~~~~8~~~~~~~~10~~0~~~~~~~~3~~~~~~~

BREAK
G ---------------------------------------------------------------------|
D ---------------------------------------------------------------------|
A ---------------------------------------------------------------------|  X4
D 8-8-8-8-8-8-8-8-8-8-8-8-8-10-10-10-0-0-0-0-0-0-0-0-3-3-3-3-3-3-3-3---|

OUTRO
G --------------------------------------------------------------|
D --------------------------------------------------------------|
A -----------------------33333----------------------------------|  X4
D 88888888888888888888888-----0000000000000003333333333333333---|

G ----------------------------------------|
D ----------------------------------------|
A ----------------------------------------|
D 0~~~~~~~~~~~~~~~~~~~~~~~~~~~~~~~~~~~~~~~

There might be some mistakes, and if there are, leave a comment and I'll fix it.  
I'm pretty sure this is around 95% perfect.
            
Submit corrections



        Forsaken lessons Hard to play? Try these video lessons and learn fast Forsaken lessons
        
↑ Back to top | Tablatures and chords for acoustic guitar and electric guitar, ukulele, drums are parodies/interpretations of the original songs. You may use it for private study, scholarship, research or language learning purposes only