» » »

As I Lay Dying - Forever Bass

Artists:  A B C D E F G H I J K L M N O P Q R S T U V W X Y Z # 

Forever Bass

(ver. 2) Click to play this song!
As I Lay Dying
 Rating:
4/5 (4 votes)


 Forever lessons Tabs too difficult? Try these video lessons and learn fast
 
                opening(after drumbs)
[----------------------------------------------]x2
[----------------------------------------------]
[------8-7-5------8-7-5------8-7-5-10-8-7-8----]
[-0-0--------0-0--------0-0--------------------]

[----------------------------------------------]x2
[----------------------------------------------]
[---10-8-7----10-8-7----10-8-7-12-10-8-10------]
[-00-------00--------00------------------------]
Verse
[----------------------------------------------]x4
[----------------------------------------------]
[----------------------------------------------]
[-00-00000-00-33-3-333-22-2333-----------------]

[-----------------------------------------------------------------]x2
[-----------------------------------------------------------------]
[-----------------------------------------------------------------]
[-0-0-0--00000000-88888888-77777777-00000000-7-8-10-12-13-12-10-9-]
Chorus
[----------------------------------------------]
[----------------------------------------------]
[------8-7-5------8-7-5------8-7-5-10-8-7-8----]
[-0-0--------0-0--------0-0--------------------]

[----------------------------------------------]x2
[----------------------------------------------]
[---10-8-7----10-8-7----10-8-7-12-10-8-10------]
[-00-------00--------00------------------------]
Verse
[----------------------------------------------]x2
[----------------------------------------------]
[--------1x16---------------11-11111-11--------]
[-0x16----------00-00000-00--------------------]

[----------------------------------------------]x2
[----------------------------------------------]
[-5-5-5555-----8-8-8888------------------------]
[----------------------------------------------]
Breakdown
[----------------------------------------------]x2
[----------------------------------------------]
[-------------11-11111-11----------------------]
[-00-00000-00----------------------------------]
Outro(Until End)
[----------------------------------------------]
[----------------------------------------------]
[-8888-7777-5555-8888--8888-7777-10101010-8888-]
[----------------------------------------------]

This is how play the song sounds pretty good.
            
Submit corrections



        Forever lessons Hard to play? Try these video lessons and learn fast Forever lessons
        
↑ Back to top | Tablatures and chords for acoustic guitar and electric guitar, ukulele, drums are parodies/interpretations of the original songs. You may use it for private study, scholarship, research or language learning purposes only