» » »

As I Lay Dying - Empty Hearts Tabs

Artists:  A B C D E F G H I J K L M N O P Q R S T U V W X Y Z # 

Empty Hearts Tabs

(ver. 2) Click to play this song!
As I Lay Dying
 Rating:
4/5 (4 votes)


 Empty Hearts lessons Tabs too difficult? Try these video lessons and learn fast
 
                ahh I seriously couldn't wait anymore for sumone to tab this solo out
so i finally did it this is for sure 99.9% right....sounds perfect

tip:if ur kinda new to these fast solos like me....Play it SLOW

until u got it memorized then speed it up!

alrite have fun....let me kno how it is

and all that good stuff




|------------------------------------------------------------------|
|------------------------------------------------------------------|
|-12-11-12--14-12-11--12-11-12-15-13-12--12-11-12--14-13-12--------|
|-----------------------------------------------------------12~----|
|------------------------------------------------------------------|
|------------------------------------------------------------------|


    
                                  

|--11-8-11--14-11-8--11-8-11--14-11-8--11-10-8--10-8--------------------|
|-----------------------------------------------------11-10~------------|
|-----------------------------------------------------------------------|
|-----------------------------------------------------------------------|
|-----------------------------------------------------------------------|
|-----------------------------------------------------------------------|




|-----------------------------10-----8---------------|
|--8-----10-----11-----10------------------11--------|
|----7-8----7-8----7-8----7-8----8-7---8-7-----------|
|----------------------------------------------------|
|----------------------------------------------------|
|----------------------------------------------------|




use wt ever fret u want for the harmonic, they all sound good to me  
|----------------------------------------------------|
|----------------------------------------------------|
|----------------------------------------------------|cant really this part.
|--8-7-5--------------------------------------7*~----| listen closely
|--------8-7-5--5-7-10--10-7-5--8-7-5-8-7-5----------|
|----------------------------------------------------|





|----------------------------------------------------|
|--8~--7-8-10~--8-10-11~--10-11-13~----13p11p10------|
|----------------------------------------------------|
|----------------------------------------------------|
|----------------------------------------------------|
|----------------------------------------------------|





|----------------------------------------------------|
|----------------------------------------------------|
|----------------------------------------------------|
|--13-12-10---------------12-14-15-------------------|
|-------------10-12-13-------------------------------|
|----------------------------------------------------|




                             OR 
|-----------11p10p8p--15-14~-|---------------------15-14~--|
|--11p10p8-------------------|-----------16-15-13----------|
|----------------------------|--15-14-12-------------------|
|----------------------------|-----------------------------|
|----------------------------|-----------------------------|
|----------------------------|-----------------------------|





(tremlo pick about 4 per note)

|--20"--18"--17"--18"--17"--15"--14"----------------|
|-------------------------------------16"-----------|
|---------------------------------------------------|
|---------------------------------------------------|
|---------------------------------------------------|
|---------------------------------------------------|





|--14p11p10--11p10p8--10p8p6--8p6p5--2~/10~*--------|
|---------------------------------------------------|
|---------------------------------------------------|
|---------------------------------------------------|
|---------------------------------------------------|
|---------------------------------------------------|


AILY=the bomb
            
Submit corrections



        Empty Hearts lessons Hard to play? Try these video lessons and learn fast Empty Hearts lessons
        
↑ Back to top | Tablatures and chords for acoustic guitar and electric guitar, ukulele, drums are parodies/interpretations of the original songs. You may use it for private study, scholarship, research or language learning purposes only