» » »

As I Lay Dying - Comfort Betrays Tabs

Artists:  A B C D E F G H I J K L M N O P Q R S T U V W X Y Z # 

Comfort Betrays Tabs

(ver. 1) Click to play this song!
As I Lay Dying
 Rating:
4/5 (4 votes)


 Comfort Betrays lessons Tabs too difficult? Try these video lessons and learn fast
 
                Okay here it is after 6 hours of listening to this song. i can promise its 100%
right but Nick might play it on different frets like i do. Its pretty hard to play but 
you do it its fun took me a while.
Enjoy and hope you like it. Give me other requests. Trust meh i have good ears and dont 
anything that sounds off.
P.s for the SPECIAL ones this IS in half-step dropped d or Drop C#. they use 4 different 
in the album. =)

T = Tap
\ = slide down
/ = slide up
~ = vibrato
pm = palm mute
^ = bend or
fb = full bend
()= ghost note

(1:40)
    T       T  T       T  T       T  T       T  T       T  T       T
D#|-------------------------------------------------------------------------|
A#|------------15-7-10-13------------15-7-10-13------------15-7-10-13-------|
F#|-15-7-10-13------------15-7-10-13------------15-7-10-13------------------|
C#|-------------------------------------------------------------------------|
G#|-------------------------------------------------------------------------|
C#|-------------------------------------------------------------------------|

  T       T  T        T  T            T       T     T T        T       T
|----------------------------------------------------20---------------------|
|-16-7-10-13-------------19-13-10-7---16-7-10-13---20--10-7---19-17-10-13---|
|------------19-11-14-17----------------------------------------------------|
|---------------------------------------------------------------------------|
|---------------------------------------------------------------------------|
|---------------------------------------------------------------------------|

  T             T       T      fb    (about 1:46)
|---------------------------21^~-|---11-14-11-10-11-10-8-10------------------|
|-22-13-10-7---16-7-10-13--------|-------------------------11-13-11-10-11-10-|
|--------------------------------|-------------------------------------------|
|--------------------------------|-------------------------------------------|
|--------------------------------|-------------------------------------------|
|--------------------------------|-------------------------------------------|
                                            (    V      E      R      Y

                                  (about 1:48)
|--------------------------------|--11-10-8-10-14-10-11-10-8-10-14-10-11-10-|
|--------------------------------|------------------------------------------|
|-12\------------------------/11~|------------------------------------------|
|-----/12-13-12-10-12-10-8-10----|------------------------------------------|
|--------------------------------|------------------------------------------|
|---------------------------------------------------------------------------|
F     A     S     T     )


         (1:51)
|8-10----/15--14--------------------------------------------|----------------|
|------------------16--15-----------------------------------|----------------|
|---------------------------13--12----/14-----14^-(12)\7~---|----------------|
|-----------------------------------------------------------|-8-10-7-8-7---5-|
|-----------------------------------------------------------|------------8---|
|-----------------------------------------------------------|----------------|
                                                                        pm--

|------------|---------------------------|---------------------------dive----|
|------------|---------------------------|-11-10-11-/15---/14----11\--bar----|
|------------|-8-7-8-/12--\11----/14~----|-----------------------14\\-----//-|
|-7----------|---------------------------|--------------------------\\---//--|
|---5~-------|---------------------------|---------------------------\\-//---|
|------------|---------------------------|----------------------------\//----|
--|

wow finally done. play it however fits best
for you with a fast tempo like this.
AILD rulez.I ALSO MAKE VERSIONS ON GUITAR PRO.
ill submit both
            
Submit corrections



        Comfort Betrays lessons Hard to play? Try these video lessons and learn fast Comfort Betrays lessons
        
↑ Back to top | Tablatures and chords for acoustic guitar and electric guitar, ukulele, drums are parodies/interpretations of the original songs. You may use it for private study, scholarship, research or language learning purposes only