» » »

Ashanti - Unfoolish Bass

Artists:  A B C D E F G H I J K L M N O P Q R S T U V W X Y Z # 

Unfoolish Bass

(ver. 1) Click to play this song!
Ashanti
 Rating:
4/5 (4 votes)


 Unfoolish lessons Tabs too difficult? Try these video lessons and learn fast
 
                -------------------------------------------------------------------------------
                             Unfoolish - Ashanti feat. Biggie
-------------------------------------------------------------------------------

Tuning: EADG

This is a simplified version. It can definitely get more complex.

G|-------------------------------------------|
D|-------------------------------------------|
A|-----3--8-------3--0-----------------------|
E|--1----------1-----------------------------|

You can also alternate with a hammer-on
G|-------------------------------------------|
D|-------------------------------------------|
A|---------3--8----------3--0----------------|
E|--0h1-1---------0h1-1----------------------|
            
Submit corrections



        Unfoolish lessons Hard to play? Try these video lessons and learn fast Unfoolish lessons
        
↑ Back to top | Tablatures and chords for acoustic guitar and electric guitar, ukulele, drums are parodies/interpretations of the original songs. You may use it for private study, scholarship, research or language learning purposes only