» » »

A Rocket To The Moon - Baby We're Invincible Tabs

Artists:  A B C D E F G H I J K L M N O P Q R S T U V W X Y Z # 

Baby We're Invincible Tabs

(ver. 2) Click to play this song!
A Rocket To The Moon
 Rating:
4/5 (4 votes)


 Baby We're Invincible lessons Tabs too difficult? Try these video lessons and learn fast
 
                intro/chorus:

E|----14-11---------|
B|---------14----12-|
G|--11--------------|
D|------------------|
A|------------------|
E|------------------|

E|----14-11------11-|
B|---------14-------|
G|--11--------------|
D|------------------|
A|------------------|
E|------------------|

E|----14-11---------|
B|---------14----12-|
G|--11--------------|
D|------------------|
A|------------------|
E|------------------|

E|--12-11-----------|
B|--------14-14-12--|
G|------------------|
D|------------------|
A|------------------|
E|------------------|

verse (rhythm):


E|--------------|---------------|------------------------|----------|
B|--------------|---------------|------------------------|----------|
G|---444--T-T---|---------------|------------------------|----------|
D|---444--A-A---|----444--T-T---|----2-------------------|--44--T-T-|
A|---222--P-P---|----444--A-A---|----2(strum for a while)|--44--A-A-|
E|--------------|----222--P-P---|----0-------------------|--22--P-P-|
   Trust in you..   ready to make...   but im scared..     know that..

verse (lead):

E|------------------|
B|---5--4--7--0-----|
G|------------------|
D|------------------|
A|------------------|
E|------------------|
   you've got better

(this is the only lead part i can hear at verse)

chorus:


E|-------------------------|
B|-------------------------|
G|---4---------------------|
D|---4--------4-------2----|
A|---2--------4-------2----|
E|------------2-------0----|
      Trust... you..  taking..    

E|-------------------------|
B|-------------------------|
G|---4---------------------|
D|---4--------4-------2----|
A|---2--------4-------2----|
E|------------2-------0----|
     home... leaving..  not..   

E|-------------------------|
B|-------------------------|
G|---4---------------------|
D|---4--------4-------2----|
A|---2--------4-------2----|
E|------------2-------0----|
      will... just..  never..

E|-------------------------|
B|-------------------------|
G|---4---------------------|
D|---4--------4-------2----|
A|---2--------4-------2----|
E|------------2-------0----|
        I... this..  baby..      

this is the bridge part...

and by bridge, i mean the part that goes, "will you just hold me tight and never let me 
go? i know this whole thing's wrong but baby we're invincible.." that repeats..

here it goes... btw, this is just the lead.. because i dont hear any rhythm guitar.. xD

E|--------11---------|--------11-14-12-11---|
B|------12--14-12-11-|------12-----------14-|
G|-------------------|----------------------|
D|----13-------------|----13----------------|
A|--14---------------|--14------------------|
E|-------------------|----------------------|

just do this over and over until chorus :D

outro:

E|------14----|
B|--------12--|
G|------------|
D|----13------| (x4)
A|--14--------|
E|------------|

hope you like it :D

rock on.. ARTTM.. \m/
            
Submit corrections



        Baby We're Invincible lessons Hard to play? Try these video lessons and learn fast Baby We're Invincible lessons
        
↑ Back to top | Tablatures and chords for acoustic guitar and electric guitar, ukulele, drums are parodies/interpretations of the original songs. You may use it for private study, scholarship, research or language learning purposes only