» » »

Arctic Monkeys - Pretty Visitors Bass

Artists:  A B C D E F G H I J K L M N O P Q R S T U V W X Y Z # 

Pretty Visitors Bass

(ver. 1) Click to play this song!
Arctic Monkeys
 Rating:
4/5 (4 votes)


 Pretty Visitors lessons Tabs too difficult? Try these video lessons and learn fast
 
                -------------------------------------------------------------------------------
		PRETTY VISITORS - Arctic Monkeys
-------------------------------------------------------------------------------


verse
G|----------------------------------|
D|-4----4-4----4-------------4---4--|
A|---5------5------------------5----|
E|-------------------7-2-7-5--------|

G|--------------|
D|--------------|
A|---4----5-4---|
E|-2----2-------|

chorus
G|--------------------|
D|--------------------|
A|---------4-5-5-5----|
E|-2-2-2-25--------4--|

verse

Chorus (ends on E2)

pause
G|-------------|
D|-------------|
A|-9\----------|
E|-----9\------|

bridge pt1
G|-----------------------|
D|---------4-3---3-4-----|
A|---5-4-5-----5-----4---|
E|-2---------------------|

bridge pt2
G|--------7---------|
D|-4444444-4444444--|
A|------------------|
E|------------------|

G|-----------|
D|-----------|
A|-5-5-5-----|
E|-------4---|

Chorus

ends on

E|-2-|
            
Submit corrections



        Pretty Visitors lessons Hard to play? Try these video lessons and learn fast Pretty Visitors lessons
        
↑ Back to top | Tablatures and chords for acoustic guitar and electric guitar, ukulele, drums are parodies/interpretations of the original songs. You may use it for private study, scholarship, research or language learning purposes only