» » »

Arctic Monkeys - No Buses Bass

Artists:  A B C D E F G H I J K L M N O P Q R S T U V W X Y Z # 

No Buses Bass

(ver. 1) Click to play this song!
Arctic Monkeys
 Rating:
4/5 (4 votes)


 No Buses lessons Tabs too difficult? Try these video lessons and learn fast
 
                Start at 01:22 (Just 'Cause Everybody's Doing it...)
G|--------------------|
D|--------------------|
A|--------------------|
E|9--9--9~--7--7--7~--|

G|----------------------------------------------------------------|
D|-----------5-----------------5-7-6-----5~-7~----7~-5--9~~-11~\--|
A|------7~-6---8-7-----7~-5~-7--------7~-------9~-----------------|
E|9~-7~-------------9~--------------------------------------------|

G|------------------------------------------------|
D|------------------------------------------------|
A|------------33-3--33-3--55-5--55-5--77-7--77-7--|
E|55-5--55-5--------------------------------------|

G|----------------------|
D|-----------3~~--/9~~--|
E|3~~---5~~-------------|
A|----------------------|

G|--------------------|
D|--------------------|
A|--------------------|
E|9--9--9~--7--7--7~--|

G|----------------------------------------------------------------|
D|-------------------------7~-5~----------------------------------|
A|-------------------------------5-5-5-5-5-5-5-5-7-7-7-7/14~~~~~--|x2
E|5-5-5-5-5-5-5-5-3-3-3-3-/---------------------------------------|

G|-----------------------------------------------------------|
D|----------------------------------7-9-7--------------------|
A|9~~------------7-7-7-7-5-5-5-5--9--------5-5-5-5-7-7-7-7---|
E|-------7-7-7-7---------------------------------------------|

G|-----------------------------------------------------------|
D|-----------------------------------------------------------|
A|9~~--9-99-5-7-5-5-5-5-5-5-5-5-7-7-7-7-5-5-7-7-8-8-8-8-7~~--|
E|-----------------------------------------------------------|

G|---------------------|
D|---------------------|
A|7-7-7-7-9-9-8-8-5~~--|
E|---------------------|

Rate?? :)
            
Submit corrections



        No Buses lessons Hard to play? Try these video lessons and learn fast No Buses lessons
        
↑ Back to top | Tablatures and chords for acoustic guitar and electric guitar, ukulele, drums are parodies/interpretations of the original songs. You may use it for private study, scholarship, research or language learning purposes only