Home » A » Aqua »

Aqua - Dr Jones Tabs

Artists:  A B C D E F G H I J K L M N O P Q R S T U V W X Y Z # 

Dr Jones Tabs

(ver. 2) Click to play this song!
Aqua
 Rating:
4.2/5 (5 votes)
                (Intro)
-----------------------------------------------------------------------------------
                             Dr Jones - Aqua (guitar intro)
-----------------------------------------------------------------------------------

Tuning: standard

e|--------------------------------13-------|------------------------------13----15|
B|------------16---------------------------|----13----16-----16-----16------------|
G|------15--------15--------15--------15---|13-----13-----------15-----15----15---|
D|--13-----13--------13-15-----15--------15|--------------13----------------------|
A|-----------------------------------------|--------------------------------------|
E|-----------------------------------------|--------------------------------------|

Notes:
1)Rhitm is something like: BOM-baba-BOM-baba-BOM-baba (don't laugh =p ) except the last 
notes. They are played like bababababa =p
(Well the intro uses only 8th and 16th notes; 140 bpm)
2)Don't let the notes ring!

===================================================================================
            
Submit corrections

↑ Back to top | Tablatures and chords for acoustic guitar and electric guitar, ukulele, drums are parodies/interpretations of the original songs. You may use it for private study, scholarship, research or language learning purposes only