» » »

A Perfect Circle - Pet Bass

Artists:  A B C D E F G H I J K L M N O P Q R S T U V W X Y Z # 

Pet Bass

(ver. 2) Click to play this song!
A Perfect Circle
 Rating:
4/5 (4 votes)


 Pet lessons Tabs too difficult? Try these video lessons and learn fast
 
                



Ok, i've tabbed this song on my 6 string bass, you can blame me because the original is 
on a 4 string... but i prefer this way because you don't ever need to change the tunning xD
Have Fun!!


Intro

C|------------------------------------------------------------------|
G|------------------------------------------------------------------|
D|------------------------------------------------------------------|
A|------------------------------------------------------------------|
E|-----------------------------------------------14.14.14.14.14.14--|
B|--444--24--2454--222-------444--24--2454--222---------------------|

C|------------------------------------------------------------------|
G|------------------------------------------------------------------|
D|------------------------------------------------------------------|
A|------------------------------------------------------------------|
A|------------------------------------------------------------------|
E|-----------------------------------------------14.14.11.14.14-----|
B|--444--24--2454--222-------444--24--2454--222----------------.14--|

Verse

C|-----------------|
G|-----------------|
D|-----------------|
A|-----------------|
E|--2-----4--------|
B|--------------4--|

Chorus

C|--------------------------------------------------------------------|
G|--------------------------------------------------------------------|
D|--------------------------------------------------------------------|
A|--------------------------------------------------------------------|
E|--------------------------2----------------------14.14.14/16.16.16--|
B|--444--24--2454--222---------444--24--2454--222---------------------|

C|---------------------------------------------------------------------|
G|---------------------------------------------------------------------|
D|---------------------------------------------------------------------|
A|--------------------------------------------------------11-----------|
E|-----------------------------------------------14.14.11-----12--11\--|
B|--444--24--2454--222-------444--24--2454--222------------------------|

Wait...

Verse

C|-----------------|-----------------|
G|-----------------|-----------------|
D|-----------------|-----------------|
A|-----------------|-----------------|
E|--2-----4--------|--2-----4--------|
B|--------------4--|--------------4--|

Verse

C|--------------------------------------------------------------------|
G|--------------------------------------------------------------------|
D|--------------------------------------------------------------------|
A|--------------------------------------------------------------------|
E|------------------------2----------------------14.14.14.14--11--11--|
B|--444--24--2454--222-------444--24--2454--222-----------------------|

C|------------------------------------------------------------------|
G|------------------------------------------------------------------|
D|------------------------------------------------------------------|
A|------------------------------------------------------------------|
A|------------------------------------------------------------------|
E|-----------------------------------------------14.14.14.14.14.11--|
B|--444--24--2454--222-------444--24--2454--222---------------------|

Interlude

C|--------------------|-----------------|-------------------------------|
G|--------------------|-----------------|-------------------------------|
D|--------------------|-----------------|-------------------------------|
A|--999---------------|-----------------|-------------------------------|
E|------11----9----7--|--/11----9----7--|--/11---13---14----11---77777--|
B|--------------------|-----------------|-------------------------------|

Verse 2

C|---------------------------------|----------------------------------------------------------|
G|---------------------------------|----------------------------------------------------------|
D|---------------------------------|----------------------------------------------------------|
A|---------------------------------|----------------------------------------------------------|
E|------12-11-------12-11---9------|------12-11-------12-11---9---14.14.14.14.14.14.14.14.14--|
B|--4/---------2-4-------------10--|----------------------------------------------------------|

C|---------------------------------|----------------------------------------------------------|
G|---------------------------------|----------------------------------------------------------|
D|---------------------------------|----------------------------------------------------------|
A|---------------------------------|----------------------------------------------------------|
E|------12-11-------12-11---9------|------12-11-------12-11---9---14.14.14.14.14.14.14.14.14--|
B|--4/---------2-4-------------10--|----------------------------------------------------------|

Solo

C|-----------------|-----------------|-----------------|-----------------------------|
G|-----------------|-----------------|-----------------|-----------------------------|
D|-----------------|-----------------|-----------------|-----------------------------|
A|-----------------|-----------------|-----------------|-----------------------------|
E|--2-----4--------|--2-----4--------|--2-----4--------|--2-----4--------------------|
B|--------------4--|--------------4--|--------------2--|--------------4----16.16.16--|

C|-----------------|-----------------|-----------------|-------------|
G|-----------------|-----------------|-----------------|-------------|
D|-----------------|-----------------|-----------------|-------------|
A|-----------------|-----------------|-----------------|-------------|
E|--2-----4--------|--2-----4--------|--2-----4--------|--2-----4----|
B|--------------4--|--------------4--|--------------4--|-------------|

End

C|-----------------|------------------|------------------------|
G|-----------------|------------------|------------------------|
D|-----------------|------------------|------------------------|
A|-----------------|------------------|------------------------|
E|-----------------|------------------|------------------------|
B|--x44---44--2-2--|--x4-4---44--2-2--|--x44---44--2-2--x4-4-4-|


Comment if you seen anything REALLY wrong!! (I don't this there is...)
            
Submit corrections



        Pet lessons Hard to play? Try these video lessons and learn fast Pet lessons
        
↑ Back to top | Tablatures and chords for acoustic guitar and electric guitar, ukulele, drums are parodies/interpretations of the original songs. You may use it for private study, scholarship, research or language learning purposes only