Home » A » Anti Nowhere League »

Anti Nowhere League - Cant Stand Rock N Roll Bass

Artists:  A B C D E F G H I J K L M N O P Q R S T U V W X Y Z # 

Cant Stand Rock N Roll Bass

(ver. 1) Click to play this song!
Anti Nowhere League
Intro                                x2
G--------------------------------------|
D--------------------------------------|
A--------------------------------------|
E-4/5-5-5-5-5-5-5-5--4/5-5-5-5-5-5-5-5-|

Chorus
G-----------------------------------------------------------------------|
D-----------------------------------------------------------------------|
A-4/5-5-5-5-5-5-5-------------------4/5-5-5-5-5-5-5-5-6/7-7-7-7-7-7-7-7-|
E-----------------4/5-5-5-5-5-5-5-5-------------------------------------|

Verse 1                              x2
G--------------------------------------|
D--------------------------------------|
A--------------------------------------|
E-4/5-5-5-5-5-5-5-5--4/5-5-5-5-5-5-5-5-|

Chorus ("Can't Stand Rock n Roll")
G-----------------------------------------------------------------------|
D-----------------------------------------------------------------------|
A-4/5-5-5-5-5-5-5-------------------4/5-5-5-5-5-5-5-5-6/7-7-7-7-7-7-7-7-|
E-----------------4/5-5-5-5-5-5-5-5-------------------------------------|

Verse 2                              x2
G--------------------------------------|
D--------------------------------------|
A--------------------------------------|
E-4/5-5-5-5-5-5-5-5--4/5-5-5-5-5-5-5-5-|

Chorus
G-----------------------------------------------------------------------|
D-----------------------------------------------------------------------|
A-4/5-5-5-5-5-5-5-------------------4/5-5-5-5-5-5-5-5-6/7-7-7-7-7-7-7-7-|
E-----------------4/5-5-5-5-5-5-5-5-------------------------------------|

Solo                                 x2
G--------------------------------------|
D--------------------------------------|
A--------------------------------------|
E-4/5-5-5-5-5-5-5-5--4/5-5-5-5-5-5-5-5-|

G-----------------------------------------------------------------------|
D-----------------------------------------------------------------------|
A-4/5-5-5-5-5-5-5-------------------4/5-5-5-5-5-5-5-5-6/7-7-7-7-7-7-7-7-|
E-----------------4/5-5-5-5-5-5-5-5-------------------------------------|

Verse 3                              x2
G--------------------------------------|
D--------------------------------------|
A--------------------------------------|
E-4/5-5-5-5-5-5-5-5--4/5-5-5-5-5-5-5-5-|

Chorus
G-----------------------------------------------------------------------|
D-----------------------------------------------------------------------|
A-4/5-5-5-5-5-5-5-------------------4/5-5-5-5-5-5-5-5-6/7-7-7-7-7-7-7-7-|
E-----------------4/5-5-5-5-5-5-5-5-------------------------------------|

End on A
G-----|
D-----|
A-----|
E-5---|
            
Submit corrections

↑ Back to top | Tablatures and chords for acoustic guitar and electric guitar, ukulele, drums are parodies/interpretations of the original songs. You may use it for private study, scholarship, research or language learning purposes only