Home » A » Anti Nowhere League »

Anti Nowhere League - Cant Stand Rock N Roll Tabs

Artists:  A B C D E F G H I J K L M N O P Q R S T U V W X Y Z # 

Cant Stand Rock N Roll Tabs

(ver. 1) Click to play this song!
Anti Nowhere League
Intro                                x2
E--------------------------------------|
B--------------------------------------|
G--------------------------------------|
D-6/7----------------6/7---------------|
A-6/7----------------6/7---------------|
E-4/5----------------4/5---------------|

Chorus
E-----------------------------------------------------------------------|
B-----------------------------------------------------------------------|
G-6/7-------------------------------6/7---------------8/9---------------|
D-6/7-------------6/7---------------6/7---------------8/9---------------|
A-4/5-------------6/7---------------4/5---------------6/7---------------|
E-----------------4/5---------------------------------------------------|

Verse 1                              x2
E--------------------------------------|
B--------------------------------------|
G--------------------------------------|
D-6/7----------------6/7---------------|
A-6/7----------------6/7---------------|
E-4/5----------------4/5---------------|

Chorus ("Can't Stand Rock n Roll")
E-----------------------------------------------------------------------|
B-----------------------------------------------------------------------|
G-6/7-------------------------------6/7---------------8/9---------------|
D-6/7-------------6/7---------------6/7---------------8/9---------------|
A-4/5-------------6/7---------------4/5---------------6/7---------------|
E-----------------4/5---------------------------------------------------|

Verse 2                              x2
E--------------------------------------|
B--------------------------------------|
G--------------------------------------|
D-6/7----------------6/7---------------|
A-6/7----------------6/7---------------|
E-4/5----------------4/5---------------|

Chorus
E-----------------------------------------------------------------------|
B-----------------------------------------------------------------------|
G-6/7-------------------------------6/7---------------8/9---------------|
D-6/7-------------6/7---------------6/7---------------8/9---------------|
A-4/5-------------6/7---------------4/5---------------6/7---------------|
E-----------------4/5---------------------------------------------------|

Solo                                 x2
E--------------------------------------|
B--------------------------------------|
G--------------------------------------|
D-6/7----------------6/7---------------|
A-6/7----------------6/7---------------|
E-4/5----------------4/5---------------|

Chorus
E-----------------------------------------------------------------------|
B-----------------------------------------------------------------------|
G-6/7-------------------------------6/7---------------8/9---------------|
D-6/7-------------6/7---------------6/7---------------8/9---------------|
A-4/5-------------6/7---------------4/5---------------6/7---------------|
E-----------------4/5---------------------------------------------------|

Verse 3                              x2
E--------------------------------------|
B--------------------------------------|
G--------------------------------------|
D-6/7----------------6/7---------------|
A-6/7----------------6/7---------------|
E-4/5----------------4/5---------------|

Chorus
E-----------------------------------------------------------------------|
B-----------------------------------------------------------------------|
G-6/7-------------------------------6/7---------------8/9---------------|
D-6/7-------------6/7---------------6/7---------------8/9---------------|
A-4/5-------------6/7---------------4/5---------------6/7---------------|
E-----------------4/5---------------------------------------------------|

End on A
E-----|
B-----|
G-----|
D-7---|
A-7---|
E-5---|





***
This is just rhythm guitar
            
Submit corrections

↑ Back to top | Tablatures and chords for acoustic guitar and electric guitar, ukulele, drums are parodies/interpretations of the original songs. You may use it for private study, scholarship, research or language learning purposes only