» » »

Annihilator - Alison Hell Tabs

Artists:  A B C D E F G H I J K L M N O P Q R S T U V W X Y Z # 

Alison Hell Tabs

(ver. 2) Click to play this song!
Annihilator
 Rating:
4/5 (4 votes)


 Alison Hell lessons Tabs too difficult? Try these video lessons and learn fast
 
                
my first solo. corrections really welcome.......there will be many!
i have not used any symbols, lest they be wrong.

-------------------------13----13-12----12------------------------------------
-15-12-15-13----13-12-12----15-------14----15-12-15-13----13-12---------------
-------------14----------------------------------------14-------12------------
-------------------------------------------------------------------12---------
----------------------------------------------------------------------14------
------------------------------------------------------------------------------
                                                                              

-------12----13-17-------12----13-13-15----------12-13------------------------
----------------17----------------12----13-12-------------12-13---------------
-12-14----14-------12-14----14----------------14------------------------9-----
-------------------------------------------------------15-------14-10-9---7---
------------------------------------------------------------------------------
------------------------------------------------------------------------------
                                                                              

----------------------------------14-17-16-16-17-16-------------17-21---------
-17----10-9-6-9-7-9-7-------7-9-7-------------------19-17----19-------19-22---
------5-------------------6-------------------------------18------------------
----7-----------------4-7-----------------------------------------------------
------------------------------------------------------------------------------
------------------------------------------------------------------------------
                                                                              

--------------------------------------------------15-15----------15-----------
-9------------------------------------------------------17-15-17--------------
---9-8-9-8-9-8-9----9--------------------------11-----------------------------
-----------------11---11-10-9----9-8----8-------------------------------------
------------------------------12-----10---10-9--------------------------------
------------------------------------------------------------------------------
                                           not sure past the lower bit        

-17-15----15-17-20----------14----12------------------------------------------
-------17----------12-14-14----14----14-12------------------------------------
-------------------------------------------14-11-14---------------------------
----------------------------------------------------14-13-12------------------
-------------------------------------------------------------14-13-12---------
----------------------------------------------------------------------13-12---
            
Submit corrections



        Alison Hell lessons Hard to play? Try these video lessons and learn fast Alison Hell lessons
        
↑ Back to top | Tablatures and chords for acoustic guitar and electric guitar, ukulele, drums are parodies/interpretations of the original songs. You may use it for private study, scholarship, research or language learning purposes only