» » »

Anberlin - Breaking Tabs

Artists:  A B C D E F G H I J K L M N O P Q R S T U V W X Y Z # 

Breaking Tabs

(ver. 2) Click to play this song!
Anberlin
 Rating:
4/5 (7 votes)

 Breaking  lessons Tabs too difficult? Try these video lessons and learn fast
 
                (Acoustic)
(Intro)
Anberlin
breaking
New Surrender (2008)

Guitar 1 - 6 string
Guitar 2 - 12 strings

Guitar 1 intro+verse
e--------------------|-----------------|----------------|------||
b------0--0-0-0------|-0--0-0-0------0-|-0-0-0-----0--0-|0-0---||
g------4--4-4-4------|-4--4-4-4------4-|-4-4-4-----4--4-|4-4---||
d----2-2--2-2-2----2-|-2--2-2-2----4-4-|-4-4-4---4-4--4-|4-4---||
a--4---4--4-4-4--0---|-0--0-0-0--2---2-|-2-2-2-2---2--2-|2-2---||
E--------------------|-----------------|----------------|------||
 Guitar 2 intro
e------7-------------------------------|
b---------------5------7h9--7------9---|
g--------------------------------------|
d--------------------------------------|
a--------------------------------------|
E--------------------------------------|
 Verse Guitar 2 - Guitar 1 still playing intro riff
e--0--0---0-0-0--|------------------|--0--0--0-0-0-|--0--0-0---0-0-0----|
b--0--0---0-0-0--|--0--0-0---0-0-0--|--0--0--0-0-0-|--0--0-0---0-0-0----|
g--6--6---6-6-6--|--2--2-2---2-2-2--|--4--4--4-4-4-|--4--4-4---4-4-4----|
d--6--6---6-6-6--|--2--2-2---2-2-2--|--4--4--4-4-4-|--4--4-4---4-4-4----|
a--4--4---4-4-4--|--0--0-0---0-0-0--|--2--2--2-2-2-|--2--2-2---2-2-2----|
E----------------|------------------|--------------|--------------------|

 Chorus
e-----------------------------|----------------------------------|
b--0--0--0-0-0--0--0-0--0-0-0-|----------------------------------|
g--2--2--2-2-2--2--2-2--6-6-6-|-4--4-4--4-4-4--4--4-4--4-4-4-----|
d--2--2--2-2-2--2--2-2--6-6-6-|-4--4-4--4-4-4--4--4-4--4-4-4-----|
a--0--0--0-0-0--0--0-0--4-4-4-|-2--2-2--2-2-2--2--2-2--2-2-2-----|
E-----------------------------|----------------------------------|

Here's the link to the video.
            
Submit corrections


        Breaking  lessons Hard to play? Try these video lessons and learn fast Breaking  lessons
        
↑ Back to top | Tablatures and chords for acoustic guitar and electric guitar, ukulele, drums are parodies/interpretations of the original songs. You may use it for private study, scholarship, research or language learning purposes only