» » »

Alison Krauss - So Long So Wrong Tabs

Artists:  A B C D E F G H I J K L M N O P Q R S T U V W X Y Z # 

So Long So Wrong Tabs

(ver. 1) Click to play this song!
Alison Krauss
 Rating:
4/5 (4 votes)

 So Long So Wrong lessons Tabs too difficult? Try these video lessons and learn fast
 
                
                    D5             G/F                     G5
3-----|-------------------||--------------|----------------------|-------------------|
3-----|-------------------||--------------|----------------------|-------------------|
2-----|-------------------||-------1/2----|-1/0------------------|-------------------|
2-----|-------------------||-0------------|-------3---0---0------|----0---------0----|
3-----|----0-------0--3--4||--------------|-------------------0--|-3-----3/5-------5-|
------|-------3--4--------||--------------|----------------------|-------------------|

                     D5               G/F                  G5

------------------|----------------|--------------------|--------------------|---------|
------------------|---------3----3-|--------------------|--------------------|---------|
------------------|-------1/2--1/2-|-1/0----------------|-2-----5--------5/7-|---7----7|
---0----0---------|-0---0----------|-------3---0---0--0-|----0-----0-0-0-----|-----0---|
5----------0--3/4-|----------------|--------------------|--------------------|---------|
------------------|----------------|--------------------|--------------------|---------|
  



    D5           G/F                    G5
--------------|----------------------|---------------------|-----------------|
----------3---|----------------------|---------------------|-----------------|
--------1/2---|-1/0------------------|---------------------|-----------------|
--------------|--------3----0---0----|----0--------0-------|----0---------0--|
--------------|--------------------0-|-3------3/5------5/3-|-------0---3-----|
--------------|----------------------|---------------------|-----------------|

    D5           G/F                        G5
---------------|--------------------------|-----------------------|------------------|
-----3------3--|---3-----3----------------|-----------------------|------------------|
---1/2----1/2--|-1/0---1/0----------------|-----------------------|------------------|
---------------|--------------3---0-------|-0---------------------|----------------0-|
---------------|----------------------3/5-|-----0--3--0------0--0-|--0--0--0--0--3---|
---------------|--------------------------|--------------3/5------|------------------|
            
Submit corrections


        So Long So Wrong lessons Hard to play? Try these video lessons and learn fast So Long So Wrong lessons
        
↑ Back to top | Tablatures and chords for acoustic guitar and electric guitar, ukulele, drums are parodies/interpretations of the original songs. You may use it for private study, scholarship, research or language learning purposes only