» » »

Alison Krauss - Baby Now That Ive Found You Tabs

Artists:  A B C D E F G H I J K L M N O P Q R S T U V W X Y Z # 

Baby Now That Ive Found You Tabs

(ver. 2) Click to play this song!
Alison Krauss
 Rating:
4/5 (4 votes)

 Baby Now That Ive Found You lessons Tabs too difficult? Try these video lessons and learn fast
 
                capo 1




-----------------------------------------------------------------------------------------
------------10---10---------------7--8--10--8-----7-------------10-----------------------
-7-9--9/11--------------7------------------------------9--7---------7---7------7---6---7-
-----------------------------------------------------------------------------------------
-----------------------------------------------------------------------------------------
-----------------------------------------------------------------------------------------


------------8-----------------------------------------------------------------------10------7----5-
-8---8-6----5---------8/10--------------8------10/12--------------------------------8-------7----5-
-----------------7----------7--7--------9-7-----------9--9-------11\9--7---------7-----------------
------------------------------------------------------------------------------9--------------------
---------------------------------------------------------------------------------------------------
---------------------------------------------------------------------------------------------------


---------------------------2----5------5-------------------------------5---------------------------
-5----------------3---5---------------------------------3---5/7----8-------8-------7---5--6--5-----
-4-6--6\4---2-----0-----------------------------------------------------------------------------7--
----------------------4----2----0------0-----------------------------------------------------------
---------------------------------------------------------------------------------------------------
---------------------------------------------------------------------------------------------------

(Fiddle part)

--------------------------------------5-------------------------------------------------------------
--------------------------------------------8---6---------------------------------------------------
-7/9-------7---------7--9--7\6---7---------------------------------------7----7-------7----9----7---
-------9-----------------------------------------------5----5-----5/7-------------------------------
----------------------------------------------------------------------------------------------------
----------------------------------------------------------------------------------------------------


-----------------------------------------------------------------------------------------------------
-10/12--------------------------------------------------------10/12----------10----------------------
--------9---9-------------9----11----12---11---------------------------------------9/11----9---------
-----------------9---12-----------------------12--9---------------------------------------------12---
-----------------------------------------------------12----------------------------------------------
-----------------------------------------------------------------------------------------------------



            
Submit corrections


        Baby Now That Ive Found You lessons Hard to play? Try these video lessons and learn fast Baby Now That Ive Found You lessons
        
↑ Back to top | Tablatures and chords for acoustic guitar and electric guitar, ukulele, drums are parodies/interpretations of the original songs. You may use it for private study, scholarship, research or language learning purposes only