» » »

Alice Cooper - Black Widow Tabs

Artists:  A B C D E F G H I J K L M N O P Q R S T U V W X Y Z # 

Black Widow Tabs

(ver. 1) Click to play this song!
Alice Cooper
 Rating:
3.3/5 (6 votes)


 Black Widow lessons Tabs too difficult? Try these video lessons and learn fast
 
                -----------------------------------------------------------------------
-----------------------------------------------------------------------

Tuning:half step down

i,ve tabbed this from the live at montreux version.its probably not exactly how its 
played but it will give you a good idea.

riff 1-main part
e|----------------------------------------------------------------|
B|----------------------------------------------------------------|
G|----------------------------------------------------10----------|
D|--9---9---9---9--12--9---9---9--------------9---9---8-----------|
A|--7---7---7---7--10--7---7---7-------7------7---7---------------|
E|----00--00--00---------00--00---7-10---10-7---00--00------------|

play this after playing the above a few times
e|----------------------------------------------------------------|
B|----------------------------------------------------------------|
G|----------------------------------------------------------------|
D|--7--9-----12--7--9---------------------------------------------|
A|--5--7-----10--5--7---------------------------------------------|
E|-------000------------------------------------------------------|

this is played over it.i dont know exactly when but listen and you
will work it out.use really fast alternate picking constantly on each
note. the dots are to show you oughly how long to play each note.
e|----------------------------------------------------------------|
B|----------------------------------------------------------------|
G|--9.........16....15........12................11......9.........|
D|----------------------------------------------------------------|
A|----------------------------------------------------------------|
E|----------------------------------------------------------------|

this is just like the first part with small differnces
e|----------------------------------------------------------------|
B|----------------------------------------------------------------|
G|------------------------------------9----------10---------------|
D|--9---9---9---9--12--9---9---9---9--7--9---9---8----------------|
A|--7---7---7---7--10--7---7---7---7-----7---7--------------------|
E|----00--00--00---------00--00--00--------00--00-----------------|


part 2-guitar 1
e|----------------------------------------------------------------|
B|----------------------------------------------------------------|
G|----------------------------------------------------------------|
D|--4-----7-5-4---*3----------------------------------------------|
A|-----7---------7-----9-10-9-10-9-10-9-10-9----------------------|
E|----------------------------------------------------------------|

part 2-guitar 2 i know this aint perfect but its close
e|-----------------------------12------------12-15------------------------|
B|-------12-12--------------12------------14----------121312131213121312--|
G|--9-12---------------9-12------------16---------------------------------|
D|------------------------------------------------------------------------|
A|------------------------------------------------------------------------|
E|------------------------------------------------------------------------|

here is the next bit
e|--------------------------------------------------------------------|
B|----------------------8-7-8-7---------------------------------------|
G|--------9-8-10-8-9------------7-------------------------------------|
D|----6-9--------------------------0-1-2-3-4-5-6-7--------------------|
A|--7-----------------------------------------------------------------|
E|--------------------------------------------------------------------|

that should be enough for you to play along to the song but here is
a small bit played near the end.

e|-----------------------------------------------------|
B|-----------------------------------------------------|
G|-----------------------------------------------------|
D|--9--------------------------------------------------|
A|--7--9-10-----10--5---7------------------------------|
E|-----7-8------8---3---5------------------------------|


************************************

| /   slide up
| \   slide down
| h   hammer-on
| p   pull-off
| ~   vibrato
| +   harmonic
| x   Mute note
| b   Bend
| pb  Pre-bend
| br  Bend release
| pbr Pre-bend release
| brb Bend release bend

************************************
            
Submit corrections



        Black Widow lessons Hard to play? Try these video lessons and learn fast Black Widow lessons
        
↑ Back to top | Tablatures and chords for acoustic guitar and electric guitar, ukulele, drums are parodies/interpretations of the original songs. You may use it for private study, scholarship, research or language learning purposes only