» » »

Alice Cooper - Feed My Frankenstein Bass

Artists:  A B C D E F G H I J K L M N O P Q R S T U V W X Y Z # 

Feed My Frankenstein Bass

(ver. 3) Click to play this song!
Alice Cooper
 Rating:
4/5 (4 votes)


 Feed My Frankenstein lessons Tabs too difficult? Try these video lessons and learn fast
 
                Album:Classicks
Bassist:Nikki Sixx

This is an awesome song. Nikki Sixx is the bassist on this song, and Joe Satriani 
and Steve Vai play guitar on it. Therefore this song rocks. Alot of people 
tab this completely wrong. It's in dropped tuning, and it consists of more 
than 2 riffs. I find it fun to play the little guitar fills, so I added them 
in.

Intro
F:-------------------------------------|--------------------|
C:-------------------------------------|-----5---5---5---7-5|
G:-------------------2-0-2-------------|7777---7---7---7----|
D:0--3--5-3-0--0-0-3--------0--3--5-3-0|--------------------|

F:-------------------------------------|----------------|
C:-------------------------------------|-----5---5---5--|
G:-------------------2-0-2-------------|7777---7---7---7|
D:0--3--5-3-0--0-0-3--------0--3--5-3-0|----------------|

F:---------------|---------------|
c:---------------|---------------|
G:---------------|---------------|
D:0-0-0-00-000000|0-0-0-00-000000|

Verse
F:---------------|---------------|---------------|---------------|---------------|
c:---------------|---------------|---------------|---------------|---------------|
G:---------------|---------------|---------------|---------------|---------------|
D:0-0-0-00-000000|0-0-0-00-000000|0-0-0-00-000000|0-0-0-00-000000|0-0-0-00-000000|

F:---------------|---------------|---------------|
c:---------------|---------------|---------------|
G:---------------|---------------|---------------|
D:0-0-0-00-000000|0-0-0-00-000000|0-0-0-00-000000|

Pre-Chorus
F:-------------------------------------------------------|
C:-------------------------------------------------------|
G:----5---5----5-5--5------------5---5---5---------------|
D:7-7---7---7---------5--5-6-7-7---7---7---7-8-9-10-11-12|

Chorus 1
F:-------------------------------------|--------------------|
C:-------------------------------------|-----5---5---5---7-5|
G:-------------------2-0-2-------------|7777---7---7---7----|
D:0--3--5-3-0--0-0-3--------0--3--5-3-0|--------------------|

F:--------------------------------------|9-8-7------------------|
C:--------------------------------------|------9-8-7------------|
G:-------------------2-0-2--------------|------------9-8-7------|
D:0--3--5-3-0--0-0-3--------0--3--5-3-0-|------------------9-8-7|

Verse 2
F:---------------|---------------|---------------|---------------|---------------|
c:---------------|---------------|---------------|---------------|---------------|
G:---------------|---------------|---------------|---------------|---------------|
D:0-0-0-00-000000|0-0-0-00-000000|0-0-0-00-000000|0-0-0-00-000000|0-0-0-00-000000|

F:---------------|---------------|---------------|---------------|
c:---------------|---------------|---------------|---------------|
G:---------------|---------------|---------------|---------------|
D:0-0-0-00-000000|0-0-0-00-000000|0-0-0-00-000000|0-0-0-00-000000|

Pre-Chorus

Chorus 2
F:-------------------------------------|--------------------|
C:-------------------------------------|-----5---5---5---7-5|
G:-------------------2-0-2-------------|7777---7---7---7----|
D:0--3--5-3-0--0-0-3--------0--3--5-3-0|--------------------|

F:-------------------------------------|----------------|
C:-------------------------------------|-----5---5---5--|
G:-------------------2-0-2-------------|7777---7---7---7|
D:0--3--5-3-0--0-0-3--------0--3--5-3-0|----------------|

F:-------------------------------------|--------------------|
C:-------------------------------------|-----5---5---5---7-5|
G:-------------------2-0-2-------------|7777---7---7---7----|
D:0--3--5-3-0--0-0-3--------0--3--5-3-0|--------------------|

F:-------------------------------------|----------------|
C:-------------------------------------|-----5---5---5--|
G:-------------------2-0-2-------------|7777---7---7---7|
D:0--3--5-3-0--0-0-3--------0--3--5-3-0|----------------|

Solo
F:---------------|---------------|---------------|---------------|---------------|
c:---------------|---------------|---------------|---------------|---------------|
G:---------------|---------------|---------------|---------------|---------------|
D:0-0-0-00-000000|0-0-0-00-000000|0-0-0-00-000000|0-0-0-00-000000|0-0-0-00-000000|

F:---------------|---------------|---------------|
c:---------------|---------------|---------------|
G:---------------|---------------|---------------|
D:0-0-0-00-000000|0-0-0-00-000000|0-0-0-00-000000|

F:-----------------------------------------------------|
C:-----------------------------------------------------|
G:----3---3----3-3--3------------3---3---3-------------|
D:5-5---5---5---------3--3-4-5-5---5---5---5-6-7-8-9-10|

F:-------------------2-0-2--------------|
C:0--3--5-3-0--0-0-3--------0--3--5-3-0-|
G:--------------------------------------|
D:--------------------------------------|

F:-------------------2-0-2--------------|
C:0--3--5-3-0--0-0-3--------0--3--5-3-0-|
G:--------------------------------------|
D:--------------------------------------|

Chorus 3
F:-------------------------------------|--------------------|
C:-------------------------------------|-----5---5---5---7-5|
G:-------------------2-0-2-------------|7777---7---7---7----|
D:0--3--5-3-0--0-0-3--------0--3--5-3-0|--------------------|

F:-------------------------------------|----------------|
C:-------------------------------------|-----5---5---5--|
G:-------------------2-0-2-------------|7777---7---7---7|
D:0--3--5-3-0--0-0-3--------0--3--5-3-0|----------------|

F:-------------------------------------|----------------|
C:-------------------------------------|5555555555555555|
G:-------------------2-0-2-------------|----------------|
D:0--3--5-3-0--0-0-3--------0--3--5-3-0|----------------|

F:--------------------------------------|9-7----------------------|
C:--------------------------------------|----9-7------------------|
G:-------------------2-0-2--------------|--------9-7--------------|
D:0--3--5-3-0--0-0-3--------0--3--5-3-0-|------------9-7-0-3-0-3-5|

F:-------------------------------------|R|
C:-------------------------------------|E|
G:-------------------2-0-2-------------|S|
D:0--3--5-3-0--0-0-3--------0--3--5-3-0|T|

End (fade out)
F:-------------------------------------|
C:-------------------------------------|
G:-------------------2-0-2-------------|
D:0--3--5-3-0--0-0-3--------0--3--5-3-0|

That's it. Kickass song, really rocks. You can tell where all the fills are 
if you just listen. I alreay put it in order for you.
            
Submit corrections



        Feed My Frankenstein lessons Hard to play? Try these video lessons and learn fast Feed My Frankenstein lessons
        
↑ Back to top | Tablatures and chords for acoustic guitar and electric guitar, ukulele, drums are parodies/interpretations of the original songs. You may use it for private study, scholarship, research or language learning purposes only