» » »

Alan Jackson - Playin Possum[lead Riffs] Tabs

Artists:  A B C D E F G H I J K L M N O P Q R S T U V W X Y Z # 

Playin Possum[lead Riffs] Tabs

(ver. 1) Click to play this song!
Alan Jackson
 Rating:
4/5 (4 votes)

 Playin Possum[lead Riffs] lessons Tabs too difficult? Try these video lessons and learn fast
 
                

	
/slide up \slide down  br bend release
bh bendhold 

    just playin possum   	

	E---------------------------------------------
	B---------------------------------------------
	G---------------------------------------------
	D-------------------------2-------------------
	A-------------------0-2/4---2br-0-------------
	E---------------0-2---------------------------
	
    layin low

	E----------------------------------------------
	B--------------10------10----------------------
	G----------7-9----9br---7----------------------
	D------7/9-------------------------------------
	A----------------------------------------------
	E----------------------------------------------
	
     see nobody

	E----------------------------------------------
	B----------------------------------------------
	G----------------------------------------------
	D-------------------2--------------------------
	A-------------0-2/4---2br--0-------------------
	E---------0-2----------------------------------
	
    want to go

	E----------------------------7--------------------
	B--------10-----10--------------------------------
	G-----------9bh----9br--7/8-----------------------
	D-------------------------------------------------
	A-------------------------------------------------
	E-------------------------------------------------
	
     playin possum

	E---------------------------------------------------
	B---------------------------------------------------
	G---------------------------------------------------
	D----------------------2----------------------------
	A----------------0-2/4----2br--2--------------------
	E------------0-2------------------------------------
	


       2nd chorus
      	
	playin possum
	E-------------------------------------------------
	B-------------------------------------------------
	G-------------------------------------------------
	D-------------------------2-----------------------
	A-------------------0-2/4---2br-0-----------------
	E---------------0-2-------------------------------
	
       layin low

	E--------------------------------------------------
	B-----------------10-------10----------------------
	G---------7--9--7-----9br---7----------------------
	D--------------------------------------------------
	A--------------------------------------------------
	E--------------------------------------------------
	
     see nobody

	E-----------------------------------------------------
	B-----------------------------------------------------
	G-----------------------------------------------------
	D----------------------2------------------------------
	A---------------0--2/4----2br--0----------------------
	E-----------0-2---------------------------------------
	
    want to go

	E---------------------7----------------
	B---10-----10--------------------------
	G------9bh----br-7/8------------------
	D--------------------------------------
	A--------------------------------------
	E--------------------------------------
	
     playin possum

	E---------------------------------------
	B---------------------------------------
	G--------------------------------------
	D----------------------2---------------
	A----------------0-2/4----2br-2--------
	E------------0-2-----------------------
	
	
  he's playin possum	  	 	
	E---------------------------------------
	B---------------------------------------
	G---------------------------------------
	D-----------------------2---------------
	A-----------------0-2/4---2br-2---------
	E-------------0-2-----------------------
	
    layin low

	E----------------------------------------
	B---5------------------------------------
	G---4br-po-2-----------------------------
	D-------------4---4--2-----2-------------
	A----------------------2/4----2br-0------
	E----------------------------------------
	
									
            
Submit corrections


        Playin Possum[lead Riffs] lessons Hard to play? Try these video lessons and learn fast Playin Possum[lead Riffs] lessons
        
↑ Back to top | Tablatures and chords for acoustic guitar and electric guitar, ukulele, drums are parodies/interpretations of the original songs. You may use it for private study, scholarship, research or language learning purposes only