» » »

Alan Jackson - Its 5Oclock Somewhere Tabs

Artists:  A B C D E F G H I J K L M N O P Q R S T U V W X Y Z # 

Its 5Oclock Somewhere Tabs

(ver. 1) Click to play this song!
Alan Jackson
 Rating:
4.3/5 (12 votes)

 Its 5Oclock Somewhere  lessons Tabs too difficult? Try these video lessons and learn fast
 
                [Intro]

e|-----------------------------------------------------------------------|
B|-----------------------------------------------------------------------|
G|------------------------------------------------0----------------------|
D|------0---------4--4--4---2--2--2---0--------0-------2-4-2-------------|
A|-------2--------------------------------0h2-------0--------------------|
E|--------2----0---------------------------------------------------------|

e|----------------------------------------------------------------------|
B|----------------------------------------------------------------------|
G|------6--6--6---4--4--4---4----2---2----------------------------------|
D|------7--7--7---5--5--5---5----4---4---------0---0--------------------|
A|-----------------------------------------------4---2------------------|
E|-----------------------------------------------------4-2--------------|
            
Submit corrections


        Its 5Oclock Somewhere  lessons Hard to play? Try these video lessons and learn fast Its 5Oclock Somewhere  lessons
        
↑ Back to top | Tablatures and chords for acoustic guitar and electric guitar, ukulele, drums are parodies/interpretations of the original songs. You may use it for private study, scholarship, research or language learning purposes only