» » »

Alan Jackson - Hole In The Wall () Tabs

Artists:  A B C D E F G H I J K L M N O P Q R S T U V W X Y Z # 

Hole In The Wall () Tabs

(ver. 2) Click to play this song!
Alan Jackson
 Rating:
4/5 (4 votes)

 Hole In The Wall () lessons Tabs too difficult? Try these video lessons and learn fast
 
                "(2)
Alan Jackson - Hole In The Wall

Intro
   G                                  Cadd9
e-------------------------------------------0----------0-------
B--3---3----3-------3---------3-------------3--3-------3--3----
G--0h2-0----0-----0-2-------0-0h2-0-------0---0-0-----0--0-0---
D--------0h2-----0---------0-----------0h2---------0h2---------
A---------------------0-1-2---------2-3-----------3------------
E---------------3----------------------------------------------

   Dsus2                  G             Dsus2 D
e-----0---------0--------------------------0--0h2---
B----3---3-----3--3----------3------------3---3-----
G---2---2-2---2--------0----0------------2----2-----
D--0---------0------0h2----0------0-0h2-0-----0-----
A------------------------------2-3------------------
E-------------------------3-------------------------
"            
Submit corrections


        Hole In The Wall () lessons Hard to play? Try these video lessons and learn fast Hole In The Wall () lessons
        
↑ Back to top | Tablatures and chords for acoustic guitar and electric guitar, ukulele, drums are parodies/interpretations of the original songs. You may use it for private study, scholarship, research or language learning purposes only