» » »

Alan Jackson - Gone Country [tp] Tabs

Artists:  A B C D E F G H I J K L M N O P Q R S T U V W X Y Z # 

Gone Country [tp] Tabs

(ver. 1) Click to play this song!
Alan Jackson
 Rating:
4/5 (4 votes)

 Gone Country [tp] lessons Tabs too difficult? Try these video lessons and learn fast
 
                Album Version:----The Greatest Hits Collection
Words & Music:----Bob McDill


SPEED: 	 Moderately (126 bpm) 4/4
CHORDS: 	 G  C  D  Em

-------------------------
Rhythm Guitar (Acoustic)
-------------------------

Intro:
(Electric Guitar (clean))
 	  	     |Riff A 	  	  	  	            End Riff A|
(1)/    /    /    /     /    /    /    /     /    /    /    /     /    /    /    /     
e|~----~----~----~----|~----~----~----~----|~----~----~----~----|~----~----~----~----|
B|~----~----~----~----|~----~3---~----~----|~----~3---~--3-~----|~----~----~----~----|
G|~----~----~----~--0-|~----~0---~----~----|~--2-~----~0---~--0-|~----RIFF-A-(3x)----|
D|~----~----~----~02--|~----~0---~----~--0-|~----~----~----~02--|~----~----~----~----|
A|~----~----~----~-h--|~----~----~--2-~3---|~----~--3-~----~-h--|~----~----~----~----|
E|~----~----~----~----|~3---~----~----~----|~----~----~----~----|~----~----~----~----|
 |*************************************Let Ring**************************************|
(Acoustic Guitar)
 |~----~-Tacet----~---|~----~-Tacet----~---|~----~-Tacet----~---|~----~-Tacet----~---|

(Acoustic Guitar)            G               D         C          G
(5)/    /    /    /     /    /    /    /     /    /    /    /     /    /    /    /
 |~----~-Tacet----~--e|~----~3---~3---~3-3-|~2---~2-2-~0---~0-0-|~3---~3---~3-3-~3-3-|
                     B|~----~3---~3---~3-3-|~3---~3-3-~1---~1-1-|~3---~3---~3-3-~3-3-|
                     G|~----~0---~0---~0-0-|~2---~2-2-~0---~0-0-|~0---~0---~0-0-~0-0-|
                     D|~----~0---~0---~0-0-|~0---~0---~2---~2-2-|~0---~0---~0-0-~0-0-|
                     A|~----~2---~2---~2---|~----~----~3---~3---|~2---~2---~2-2-~2---|
                     E|~----~3---~3---~3---|~----~----~----~----|~3---~3---~3---~3---|

   D         C
(9)/    /    /    /
e|~2---~2-2-~0---~0-0-|
B|~3---~3-3-~1---~1-1-|
G|~2---~2-2-~0---~0-0-|
D|~0---~0---~2---~2-2-|
A|~----~----~3---~3---|
E|~----~----~----~----|

VERSE 1 2. and 3:
(Electric)
    |Riff B                       End Riff B|                 Riff A                  |
(10)/    /    /    /     /    /    /    /     /    /    /    /     /    /    /    /
 e|~----~----~----~----|~----~----~----~----|~----~----~----~----|~----~----~----~----|
 B|~----~3---~----~----|~----~1---~----~3---|~----~3---~----~----|~----~3---~--3-~----|
 G|~----~0---~----~----|~----~0---~2---~2---|~----~0---~----~----|~--2-~----~0---~--0-|
 D|~----~0---~----~----|~----~----~0---~----|~----~0---~----~--0-|~----~----~----~02--|
 A|~----~----~----~--2-|~----~----~----~----|~----~----~--2-~3---|~----~--3-~----~-h--|
 E|~3---~----~----~----|~3---~----~----~----|~3---~----~----~----|~----~----~----~----|
|***************************************Let Ring**************************************|

                                                                                   (4x)
(Acoustic)
    |Rhy. Fig. 1                                                       End Rhy. Fig. 1|
    G                    C         D          G                    D         C
    /    /    /    /     /    /    /    /     /    /    /    /     /    /    /    /
 e|~3---~3-3-~3---~3-3-|~0---~0-0-~2---~2-2-|~3---~3---~3-3-~3-3-|~2---~2-2-~0---~0-0-|
 B|~3---~3-3-~3---~3-3-|~1---~1-1-~3---~3-3-|~3---~3---~3-3-~3-3-|~3---~3-3-~1---~1-1-|
 G|~0---~0-0-~0---~0-0-|~0---~0-0-~2---~2-2-|~0---~0---~0-0-~0-0-|~2---~2-2-~0---~0-0-|
 D|~0---~0-0-~0---~0-0-|~2---~2-2-~0---~0---|~0---~0---~0-0-~0-0-|~0---~0---~2---~2---|
 A|~2---~2-2-~2---~2---|~3---~3---~----~----|~2---~2---~2-2-~2---|~----~----~3---~3---|
 E|~3---~3---~3---~3---|~----~----~----~----|~3---~3---~3---~3---|~----~----~----~----|
                                                                                   (4x)

BRIDGE 1 2 and 3:
(Electric)
(26)/    /    /    /     /    /    /    /     /    /    /    /     /    /    /    /
 e|~----~----~----~----|~----~----~----~----|~----~----~----~----|~----~----~----~----|
 B|~----~----~----~----|~----~----~----~3---|~----~----~----~----|~----~----~----~----|
 G|~----~----~----~----|~2---~----~2---~2h0-|~----~----~----~----|~2---~2-2-~2-2-~2-2-|
 D|~2---~----~----~----|~0---~--0-~0---~----|~----~----~----~----|~0---~0-0-~0-0-~0-0-|
 A|~2---~----~2---~----|~----~----~----~----|~2---~----~----~----|~----~----~----~----|
 E|~0---~----~0---~----|~----~----~----~----|~0---~----~----~----|~----~----~----~----|
                                        |***********Let Ring***********|
(Acoustic)
    Em                   D                    Em                   D
    /    /    /    /     /    /    /    /     /    /    /    /     /    /    /    /
 e|~0---~0-0-~0---~0-0-|~2---~2-2-~2---~2-2-|~0---~0-0-~0---~0-0-|~2---~2-2-~2-2-~2-2-|
 B|~0---~0-0-~0---~0-0-|~3---~3-3-~3---~3-3-|~0---~0-0-~0---~0-0-|~3---~3-3-~3-3-~3-3-|
 G|~0---~0-0-~0---~0-0-|~2---~2-2-~2---~2-2-|~0---~0-0-~0---~0-0-|~2---~2-2-~2-2-~2-2-|
 D|~2---~2-2-~2---~2-2-|~0---~0-0-~0---~0---|~2---~2-2-~2---~2-2-|~0---~0-0-~0-0-~0---|
 A|~2---~2-2-~2---~2---|~----~----~----~----|~2---~2-2-~2---~2---|~----~----~----~----|
 E|~0---~0-0-~0---~0---|~----~----~----~----|~0---~0-0-~0---~0---|~----~----~----~----|

CHORUS 1 2 and 3:
(Electric)
(30)
  |~----~-Tacet----~---|~----~-Tacet----~---|~----~-Tacet----~---|~----~-Tacet----~---| 
(Acoustic)
|Rhy. Fig. 2
   G                    C         D          G                     C         D
   /    /    /    /     /    /    /    /     /    /    /    /      /    /    /    /
 e|~3---~3---~3-3-~3-3-|~0---~0-0-~2---~2-2-|~3---~3-3-~3-3-~3-3-|~0---~0-0-~2---~2-2-|
 B|~3---~3---~3-3-~3-3-|~1---~1-1-~3---~3-3-|~3---~3-3-~3-3-~3-3-|~1---~1-1-~3---~3-3-|
 G|~0---~0---~0-0-~0-0-|~0---~0-0-~2---~2-2-|~0---~0-0-~0-0-~0-0-|~0---~0-0-~2---~2-2-|
 D|~0---~0---~0-0-~0-0-|~2---~2-2-~0---~0---|~0---~0-0-~0-0-~0-0-|~2---~2-2-~0---~0---|
 A|~2---~2---~2-2-~2---|~3---~3---~----~----|~2---~2-2-~2-2-~2---|~3---~3---~----~----|
 E|~3---~3---~3---~3---|~----~----~----~----|~3---~3---~3---~3---|~----~----~----~----|

(Electric)
(34)                                                             |       Fill 1       |  
  |~----~-Tacet----~---|~----~-Tacet----~---|~----~-Tacet----~--e|~----~----~----~----| 
                                                                B|~----~----~----~----|
                                                                G|~----~----~----~----|
                                                                D|~----~----~----~----|
                                                                A|~----~----~----~----|
                                                                E|~----~----~----~14\2|

(Acoustic)                                                             End Rhy. Fig. 2|
    G                    D         C          Em
    /    /    /    /     /    /    /    /     /    /    /    /     /    /    /    /
 e|~3---~3-3-~3---~3-3-|~2---~2-2-~0---~0-0-|~0---~*---~*---~*---|~*---~*---~----~----|
 B|~3---~3-3-~3---~3-3-|~3---~3-3-~1---~1-1-|~0---~*---~*---~*---|~*---~*---~----~----|
 G|~0---~0-0-~0---~0-0-|~2---~2-2-~0---~0-0-|~0---~*-Hold---~*---|~*---~*---~----~----|
 D|~0---~0-0-~0---~0-0-|~0---~0---~2---~2---|~2---Chord-For-~*---|~*---~*---~----~----|
 A|~2---~2-2-~2---~2---|~----~----~3---~3---|~2---~6-Beats--~*---|~*---~*---~----~----|
 E|~3---~3---~3---~3---|~----~----~----~----|~0---~*---~*---~*---|~*---~*---~----~----|

Interlude 1: (4 measures)
(Electric) = Riff A (2x)
(Acoustic) = Rhy. Fig. 1 (last 2 meas. 2x)

VERSE 2: (Electric) (acoustic as above)     |                 Riff C                  |
(42)/    /    /    /     /    /    /    /     /    /    /    /     /    /    /    /
 e|~----~----~----~-Riff~-B--~----~----~----|~----~----~----~----|~----~----~----~----|
 B|~----~----~----~----|~----~----~----~----|~----~3---~*---~--3-|~*---~--3-~*---~----|
 G|~----~----~----~----|~----~----~----~----|~----~0---~*-0h~4-2-|~*---~2-0-~*---~--0-|
 D|~----~----~----~----|~----~----~----~----|~----~----~----~----|~--0-~----~----~02--|
 A|~----~----~----~----|~----~----~----~----|~----~----~----~----|~----~----~----~-h--|
 E|~----~----~----~----|~----~----~----~----|~3---~----~----~----|~----~----~----~----|
                                                                                   (2x)
                                            |                 Riff D                  |
(50)/    /    /    /     /    /    /    /     /    /    /    /     /    /    /    /
 e|~----~----~----~-Riff~-B--~----~----~----|~----~----~----~----|~----~----~----~----|
 B|~----~----~----~----|~----~----~----~----|~----~3---~*---~--3-|~----~3-3-~3---~----|
 G|~----~----~----~----|~----~----~----~----|~0---~0---~*-0-~0-2-|~--2-~--2-~0---~--0-|
 D|~----~----~----~----|~----~----~----~----|~----~----~----~0---|~0---~----~----~02--|
 A|~----~----~----~----|~----~----~----~----|~----~----~----~----|~----~----~----~-h--|
 E|~----~----~----~----|~----~----~----~----|~----~----~----~----|~----~----~----~----|

                                            |                 Riff E                  |
(54)/    /    /    /     /    /    /    /     /    /    /    /     /    /    /    /
 e|~----~----~----~-Riff~-B--~----~----~----|~----~----~----~----|~----~----~----~----|
 B|~----~----~----~----|~----~----~----~----|~----~3---~*---~----|~----~3---~--3-~----|
 G|~----~----~----~----|~----~----~----~----|~----~0---~*---~----|~--0-~----~0---~----|
 D|~----~----~----~----|~----~----~----~----|~----~0---~*---~--0-|~*---~----~----~2-0-|
 A|~----~----~----~----|~----~----~----~----|~----~----~--2-~3---|~----~--3-~----~----|
 E|~----~----~----~----|~----~----~----~----|~3---~----~----~----|~----~----~----~----|

Pedal Steel Solo: (8 measures)
(Electric) = Riff B (3x)
(Acoustic) = Rhy. Fig. 2

VERSE 3: (Electric) (acoustic as above)     |                 Riff F                  |
(78)/    /    /    /     /    /    /    /     /    /    /    /     /    /    /    /
 e|~----~----~----~-Riff~-B--~----~----~----|~----~----~----~----|~----~----~----~----|
 B|~----~----~----~----|~----~----~----~----|~----~3---~*---~3---|~----~3---~----~----|
 G|~----~----~----~----|~----~----~----~----|~----~0---~*---~0---|~--2-~--2B~r-0-~--0-|
 D|~----~----~----~----|~----~----~----~----|~----~0---~*---~0---|~0---~----~----~02--|
 A|~----~----~----~----|~----~----~----~----|~----~----~----~----|~----~----~----~-h--|
 E|~----~----~----~----|~----~----~----~----|~3---~----~----~----|~----~----~----~----|
                                                                                   (4x)

Interlude 2: (4 measures)
(Electric) = Riff A (2x)
(Acoustic) = Tacet

CHORUS 4:
(Acoustic) = Rhy. Fig. 2 (1st 4 meas. 2x) 
(Electric)
   |                                      Riff G                                       |
(110)/    /    /    /     /    /    /    /     /    /    /    /     /    /    /    /
  e|~----~----~----~----|~----~----~----~----|~----~----~----~----|~----~----~----~----|
  B|~----~3---~*---~----|~----~3---~----~3-3-|~----~3---~*---~*---|~----~1---~----~----|
  G|~----~0---~*-0-~----|~--3-~0---~2-2-~2-0-|~----~0---~*---~*---|~--0-~----~--2-~--0-|
  D|~----~0---~*---~0---|~----~----~0-0-~----|~----~0---~*---~*---|~----~----~0---~02--|
  A|~----~----~----~--2-|~3---~----~----~----|~----~----~----~--2-|~3---~--3-~----~-h--|
  E|~3---~----~----~----|~----~----~----~----|~3---~----~----~----|~----~----~----~----|
                                                                                    (2x)

OUTRO: 4-5x (start fading after 8 meas.)
(Electric) = Riff G (till fade)
(Acoustic) = Rhy. Fig. 2 (1st 4 meas. till fade) 

TAB REFERENCE KEY:
/  = 1 beat
~  = beat separation
- 	 = 1/16 note
-- = 1/8  note
---- = 1/4 note
*  = Hold note
h  = Hammer-on
B  = Full Bend
r  = Bend release




LYRICS:

Intro:
G 	  	 /D 	   C 	    /G 	  	    /D 	  	 C            /
                                                                             She's been

VERSE 1
G 	  	  	       /C 	        /D       /G         /D        C          /
playing that room on the strip      for ten years in Vegas.                     Every
G                             /C        /D           /G         /D        C          /
Night   she looks in the mir – ror  and she on  – ly  ages.                 She's been
G                                  /C           /D           /G       /D  C          /
Readin' about Nashville and all the records that every'body's buying.     Say's "I'm a 
G                             /C        /D           /G         /D        C          /
Simple girl my – self            grew up on      Long Island"                   So she

BRIDGE:
Em                   /D                    /Em           /D                           /
Packs her bags     to try her hand.  Say's "This might be my last chance."  She's gone

CHORUS:
G          /C                  D           /G          /C                 D           /
country     look at them boots. She's gone  country,    back to her roots.  She's gone
G          /C                  D           /Em       /Em
country,  a new kind of suit.   She's gone  country.    Here she comes.

Interlude 1  
G 	  	 /D 	   C 	    /G 	  	    /D 	  	 C            /
                                                                              Well, the

VERSE 2:
G                       /C               D          /G           /D       C         /
folk scene's dead,   but he's holding out in the vil–lage.                  He's been
G                        /C        D              /G             /D       C         /
Writing songs speaking out against wealth and pri–'lege.                     He say's
G                               /C             D         /G      /D       C         /
"I don't believe in money, but a man could make him a kil-lin'                 'cause
G                            /C     D              /G            /D       C         /
Some of that stuff don't sound much dif-f'rent than Dylan.                          I

BRIDGE:
Em                   /D                   /Em                             /   
hear down there  it's changed  you see.    They're not as backward as they
D                     /
used to be." He's gone 

CHORUS:
G          /C                  D           /G          /C                 D           /
country     look at them boots.  he's gone  country,    back to his roots.   he's gone
G          /C                  D           /Em       /Em
country,  a new kind of suit.    He's gone  country.    Here he comes.

Pedal Steel Solo:
G 	  	 /C 	     D 	       /G 	  	  /C 	      D
G 	  	 /C 	     D 	       /Em 	        /Em            /
                                                        Well, he com-

VERSE 3:
G                       /C               D          /G           /D    C            /
mutes to L.A.        but he's got a house in the val-ley.               But the bills
G                       /C          /D              /G           /D       C         /
are piling up and the pop scene just ain't  on  the  rally,                  He say's
G                            /C            D              /G     /D  C                /
"Honey, I'm a serious composer schooled in voice and compo-sition,   but with the crime
G                       /C           D           /G              /D       C           /
and the smog these day's, this ain't no place for children."                   "Lord it


BRIDGE:
Em                  /D                      /Em                  /  
Sounds so easy, this shouldn't take long. Be back in the money in 
D                         /
No time at all." He's gone

CHORUS:
G          /C                  D           /G          /C                 D       /
country     look at them boots.  he's gone  country,    back to his roots.   he's gone
G          /C                  D           /Em       /Em
country,  a new kind of suit.    He's gone  country.    Here he comes.

Interlude 2:
/ 	 - 	 / 	 - 	 / 	 - 	 / 	  	 - 	    /
 	  	  	  	  	  	             Yeah,     he's gone

CHORUS:
G          /C                  D           /G          /C                 D       /
country   a new kind of walk.    He's gone  country,  a new kind of talk.   he's gone
G          /C                  D           /G             /C                D     /
country,    look at them boots.  He's gone  country.   Oh, back to his roots He's gone
OUTRO:
G           /C       D           /G        /C       D           /G
country.               He's gone  country.    Ev'ry-body's gone  country
C         D           /G         /C           D            /G
     Yeah, we've gone  country.     The whole world's gone  country.


Request. They're all recorded versions. I can't upload them here because of 
Copyright laws. They all include the Pedal Steel, Dobro, Fiddle, Piano
Vocals & backing vocal Tabs. Some include Percussion, (prob. Not correct though) but not all.
Anyhow ENJOY!








 
            
Submit corrections


        Gone Country [tp] lessons Hard to play? Try these video lessons and learn fast Gone Country [tp] lessons
        
↑ Back to top | Tablatures and chords for acoustic guitar and electric guitar, ukulele, drums are parodies/interpretations of the original songs. You may use it for private study, scholarship, research or language learning purposes only