» » »

Alan Jackson - Burnin The Honky Tonks Down (3rd Tabs

Artists:  A B C D E F G H I J K L M N O P Q R S T U V W X Y Z # 

Burnin The Honky Tonks Down (3rd Tabs

(ver. 1) Click to play this song!
Alan Jackson
 Rating:
4/5 (4 votes)

 Burnin The Honky Tonks Down (3rd lessons Tabs too difficult? Try these video lessons and learn fast
 
                (Solo)
Alan Jackson  -  Burnin The Honky Tonks Down  (Solo 3)



*****************************************************************************************


      E

E--------------------------------------------------12------12---------------------------
B--------------------------------------------12h14----15bh----15r-p12----12-------------
G-----------------------------11h14p11-12/13--------------------------15----15p14p12----
D--------------------11-13-14--------------------------------------------------------14-
A-----------11-12-14--------------------------------------------------------------------
E--2/-12-14-----------------------------------------------------------------------------

                                                     B7

E---------------------------------------------------------------
B--14---11/12---------------------------------------------------
G--14---12/13---12/13---12---11----8/-9----8---7---7/8---7---8--
D-----x-------x-13/14-x-13-x-12-x-10/11-x-10-x-9-x-8/9-x-8-x-7--
A---------------------------------------------------------------
E---------------------------------------------------------------

      E                                       A

E--11/12-10\9----9--------------------------------------------------------
B-------------12---12-11-10-8p7p5---5\3-------8p7p5-7p5-------5-----------
G---------------------------------6-----4h5/6-----------8p7p0-5b----------
D----------------------------------------------------------------7p5---5b-
A--------------------------------------------------------------------7----
E-------------------------------------------------------------------------

     E                 B             E

E---------------------------------------------------------------|
B------------------------------------5--------------------------|
G-----------------------------------x-----7---------------------|
D----5b-------5b-------5b-------7--x-----x----7-5b-------5b-----|
A--7----7p5------7p5------7p5-----x-----x----x-----7p5------7---|
E-----------7--------7--------7--------x----x----------7--------|
            
Submit corrections


        Burnin The Honky Tonks Down (3rd lessons Hard to play? Try these video lessons and learn fast Burnin The Honky Tonks Down (3rd lessons
        
↑ Back to top | Tablatures and chords for acoustic guitar and electric guitar, ukulele, drums are parodies/interpretations of the original songs. You may use it for private study, scholarship, research or language learning purposes only