» » »

Alan Jackson - Burnin' The Honky Tonks Down (1st Tabs

Artists:  A B C D E F G H I J K L M N O P Q R S T U V W X Y Z # 

Burnin' The Honky Tonks Down (1st Tabs

(ver. 1) Click to play this song!
Alan Jackson
 Rating:
4/5 (4 votes)

 Burnin' The Honky Tonks Down (1st lessons Tabs too difficult? Try these video lessons and learn fast
 
                (Solo)
Alan Jackson  -  Burnin' The Honky Tonks Down  1st Solo



This is the 1st solo in the song which starts at 0:21


***************************************************************************



E------------------------------------------------------------
B--2/3-2-0---------------------------------------------------
G--3/4-2-0------------------------------0--------------------
D---------2p0-0h2-----------------0-0-4b-4brbr-p2-----2------
A------------2-----------2-4-2-4/5---------------4p2-4-------
E----------------3b-0-2/4------------------------------3b-0--


E----------------------------5----------0-----0--0---0-----0-
B--------------------------7---7-------11/12-11-10--10----0--
G-------------------4-4-6bh-6-6-6r-4/-------------12--11\9---
D----------2---2-4/6-6---------------------------------------
A-------2-4-2/4----------------------------------------------
E--0-2/4-----------------------------------------------------


E------------------------------------------------------------------------
B--9\7-7---------0-----------------2/3-3-3-3-2/3-3-3-3-2/3-3-3-3-2/3-3-3-
G--9\7-7------------------------2--3/4-4-4-4-3/4-4-4-4-3/4-4-4-4-3/4-4-4-
D-----9-9-8-7\5h7-7-5-----0----------------------------------------------
A--------------------7-5-0-0-3h4-----------------------------------------
E------------------------------------------------------------------------


E--------------------------------|
B--3p2p0-2p0---------------------|
G--4p2p0-2p0-0-------------------|
D-----------2-2p0-2p0------------|
A----------------2---2-0h2-------|
E-------------------------3b-0---|
            
Submit corrections


        Burnin' The Honky Tonks Down (1st lessons Hard to play? Try these video lessons and learn fast Burnin' The Honky Tonks Down (1st lessons
        
↑ Back to top | Tablatures and chords for acoustic guitar and electric guitar, ukulele, drums are parodies/interpretations of the original songs. You may use it for private study, scholarship, research or language learning purposes only