» » »

Air Traffic - Shooting Star Tabs

Artists:  A B C D E F G H I J K L M N O P Q R S T U V W X Y Z # 

Shooting Star Tabs

(ver. 2) Click to play this song!
Air Traffic
 Rating:
4.5/5 (8 votes)


 Shooting Star lessons Tabs too difficult? Try these video lessons and learn fast
 
                This is the solo, the solo starts at 2:30.

Standard tuning (EADGBe)
/ - slide up
\ - slide down
p - pull-off
~ - vibrato

Please listen to the record for the exact timing
                                                                  x2 - /this means\
e|----------------------------------------------------------------||   |play the  |
B|o---------8----------------------------------------------------o||   |whole bar |
G|--7/9-(9)---9-7\5-7-5---5-----------------------5---5-7--7-7-7--||   \twice     /
D|-------^--------------7----7-7-7-7-7-5-7--7-7-7---7-------------||
A|o------|-------------------------------------------------------o||
E|-------|--------------------------------------------------------||
         |__/these 9's after the slide are only played in the acoustic & live \
            \versions, in the studio version you may slightly vibrate the 7/9~/
e|--------------------------------------------------------------------|
B|---------8-----8-8/10-10-10-10-10-10/13-13-13-13-13-13-12-12-12-12\-|
G|-7/9-(9)---9-7------------------------------------------------------|
D|--------------------------------------------------------------------|
A|--------------------------------------------------------------------|
E|--------------------------------------------------------------------|

e|--------------------------------------------------------------|
B|---------8----------------------------------------------------|
G|-7/9-(9)---9-7\5-7-5---5-----------------------5---5-7--7-7-7-|
D|---------------------7----7-7-7-7-7-5-7--7-7-7---7------------|
A|--------------------------------------------------------------|
E|--------------------------------------------------------------|

e|--------------------------------------------------------------------|
B|---------8-----8-8/10-10-10-10-10-10/13-13-13-13-13-13-12-12-12-12\-|
G|-7/9-(9)---9-7------------------------------------------------------|
D|--------------------------------------------------------------------|
A|--------------------------------------------------------------------|
E|--------------------------------------------------------------------|

e|--------------------------------------------------------------|
B|---------8----------------------------------------------------|
G|-7/9-(9)---9-7\5-7-5---5-----------------------5---5-7--7-7-7-|
D|---------------------7----7-7-7-7-7-5-7--7-7-7---7------------|
A|--------------------------------------------------------------|
E|--------------------------------------------------------------|

e|-----------------------------------------------------------|
B|---------8---------------------------------13-13-13p12-12\-|
G|-7/9-(9)---9-7\5-7-5---5-----------------------------------|
D|---------------------7----7-7-7-7-7-5-7--7-----------------|
A|-----------------------------------------------------------|
E|-----------------------------------------------------------|

e|---------------------------------------------------------------|
B|---------8-----------------------------------------------------|
G|-7/9-(9)---9-7\5-7-5---5--5-5-5-5/7-7-7-7/9-9-9-9/12-12--12-12-|
D|---------------------7-----------------------------------------|
A|---------------------------------------------------------------|
E|---------------------------------------------------------------|

e|-----------------------------------------------------|
B|o-13-13-13-13-13-13-13-13-13-12-12-12-12-12-12-12-12-|
G|-----------------------------------------------------|-----|
D|-----------------------------------------------------|     |
A|o----------------------------------------------------|     |
E|-----------------------------------------------------|     |
                                                             | x2
-----------------------------------------------||            |
-15-15-15-15-15-15-15-15----------------------o||            |
-------------------------14-14-14-14-14-14-14--||            |
-----------------------------------------------||------------|
----------------------------------------------o||
-----------------------------------------------||

e|---------------------------------------------------------|
B|-13-12---13-12--13-12-13-12--13-12--13-12-13-12--13-12---|
G|-------14-----14-----------14-----14-----------14-----14-|
D|---------------------------------------------------------|
A|---------------------------------------------------------|
E|---------------------------------------------------------|

e|-------------------------------------------------------|
A|-13-12-13-15-15-15-15-15-15-15-------------------------|
D|-------------------------------14-14-14-14-14-14-14-14-|
G|-------------------------------------------------------|
B|-------------------------------------------------------|
E|-------------------------------------------------------|

e|----------------------------------------------------------------------------|
B|-13-13-13-13-13-13-13-13-12-12-12-12-12-12-12-12-15-15-15-15----------------|
G|-------------------------------------------------------------14-12-14-12-14~|
D|----------------------------------------------------------------------------|
A|----------------------------------------------------------------------------|
E|----------------------------------------------------------------------------|
            
Submit corrections



        Shooting Star lessons Hard to play? Try these video lessons and learn fast Shooting Star lessons
        
↑ Back to top | Tablatures and chords for acoustic guitar and electric guitar, ukulele, drums are parodies/interpretations of the original songs. You may use it for private study, scholarship, research or language learning purposes only