» » »

Against The Current - Chasing Ghosts Tabs

Artists:  A B C D E F G H I J K L M N O P Q R S T U V W X Y Z # 

Chasing Ghosts Tabs

(ver. 1) Click to play this song!
Against The Current
 Rating:
4.4/5 (8 votes)
    Chasing Ghosts  lessons Tabs too difficult? Try these video lessons and learn fast
                [Intro]
e|--------------------|------------------|-------------------------|------------------|
B|-------2--------2---|-----5--------5---|-------10----------10----|-----7--------7---|
G|-----2---2----2---2-|---6---6----6---6-|----11----11----11----11-|---7---7----7---7-|
D|---4--------4-------|-7--------7-------|-12----------12----------|-9--------9-------|
A|--------------------|------------------|-------------------------|------------------|
E|--------------------|------------------|-------------------------|------------------|


[Verse]
e|--------------------|------------------|-------------------------|------------------|
B|-------2--------2---|-----5--------5---|-------10----------10----|-----7--------7---|
G|-----2---2----2---2-|---6---6----6---6-|----11----11----11----11-|---7---7----7---7-|
D|---4--------4-------|-7--------7-------|-12----------12----------|-9--------9-------|x2
A|--------------------|------------------|-------------------------|------------------|
E|--------------------|------------------|-------------------------|------------------|

[Pre-Chorus]
e|-----------------|
B|-----------------|
G|-7---------------|
D|-7---4---2-------|x3   
A|-5---4---2-------|
E|-----2---0-------|

e|--------------|                                 
B|--------------|
G|-4--6---------|
D|-4--6---------|play at the end the 3rd time 
A|-2--4---------|
E|--------------|

[Chorus}
e|-------------------------------|
B|-------------------------------|
G|-------7----------9------------|
D|-4-----7-x8-7-----9-x8---------|       
A|-4-x8--5----7-x8--7------------|
E|-2----------5------------------|            
Submit corrections

↑ Back to top | Tablatures and chords for acoustic guitar and electric guitar, ukulele, drums are parodies/interpretations of the original songs. You may use it for private study, scholarship, research or language learning purposes only