» » »

Afterhours - Dentro Marilyn Tabs

Artists:  A B C D E F G H I J K L M N O P Q R S T U V W X Y Z # 

Dentro Marilyn Tabs

(ver. 1) Click to play this song!
Afterhours
 Rating:
4/5 (4 votes)

 Dentro Marilyn lessons Tabs too difficult? Try these video lessons and learn fast
 
                AFTERHOURS
DENTRO MARILYN

standard tuning
Xabier's parts are at the end
CLEAN TONE, USE WAH AS FILTER (TOE DOWN)
|--------------------------------|-----------|
|-------------1---------------3--|-----------|
|------0h2-0--2------------0--0--|------0----|
|--0h2--------2--------0h2----2--|--0h2------|
|-------------0---------------3--|-----------|
|--------------------------------|-----------|
                     play 2 times        play this to lead into verse chords

VERSE CHORDS
|----------------------------------------------|
|-------------------------3--3--3--3--3--3--3--|
|-------------------------0--0--0--0--0--0--0--|
|---2--2--2--2--2--2--2---2--2--2--2--2--2--2--|
|---2--2--2--2--2--2--2---3--3--3--3--3--3--3--|
|---0--0--0--0--0--0--0------------------------|

CHORUS:
|----------------------------------------------------------------------|
|--------------------1--1--1--1--1--1--2--2--2--2--2--1--1--1--1--1--1-|
|--------------------0--0--0--0--0--0--2--2--2--2--2--0--0--0--0--0--0-|
|--2--2--2--2--2--2--2--2--2--2--2--2--2--2--2--2--2--2--2--2--2--2--2-|
|--2--2--2--2--2--2--3--3--3--3--3--3--0--0--0--0--0--3--3--3--3--3--3-|
|--0--0--0--0--0--0----------------------------------------------------|

BRIDGE PART (AFTER PAUSE):
|------------------0-----0--------------------------------|
|---------------0--0--0--0--0-----------------------------|
|---------------0--0--0--0--0--9--9--9--9--9--9--9--9--9--|
|--2--2--2--2/4/5--5--5--5--5-10-10-10-10-10-10-10-10-10--|
|--2--2--2--2/4/5--5--5--5--5-10-10-10-10-10-10-10-10-10--|
|--0--0--0--0/2/3--3--3--3--3--8--8--8--8--8--8--8--8--8--|

FOR OUTRO RHYTHM STRUMS E AND C ONCE EACH TIME.

XABIER'S GUITAR FILLS
INTRO
|--------------------------------12----------------|
|---------------------------------*-12-------------|
|-----12--12----12-----------12------*-------------|
|--12--*---*-12--*--12-12-12--*--------------------|
|---*---------*------*--*--*-----------7-----------|
|-------------------------------------*------12*---|
the *'s indicates harmonics

VERSE 1
|------------------12*-|
|------------------12*-|
|--12--------------12*-|
|---*-12-----------12*-|
|------*-12------------|
|---------*---12*------|
                  RAKE
'part 2'
WHEN BAND COMES IN ON VERSE 1 PLAY THE SAME BIT AS IN INTRO, THEN:
|------------------------------------------------|------7--|
|------------------------------------------------|------7--|
|-----------12---------------12------------12----|------7--|
|-----12-------12-----12------------12--------12-|------7--|
|--------12--------------12------------12--------|---------|
|--12--------------12------------12--------------|---------|
ALL HARMONICS UNLESS OTHERWISE STATED                    only before choruses

Verse 2 play the intro part again, then the 'part 2' with the following on the end:
|--12--------7----------| (harmonics, obviously)
|--12--------7----------|
|--12--------7----------|
|--12--------7----------|
|--12--------7----------|
|-----------------------|

play intro bit again, then the 'part 2' bit including the part into choruses.

after chorus 2, play this:
|--------------------------------------------|
|--------------------------------------------|
|-----------12-------------------------------|
|-----12-------12--7-------------------------|
|--------12----------7-----------------------|
|--12------------------12/(10)\12------17\---|
                       whammy bar     ^ not a harmonic

|------------------12-----------------|
|---------------------12--------------|
|-----------12-----------12-----------|
|-----12-------12---------------------|
|--------12-----------------7--7------|
|--12---------------------------------|


only this in verse 3
|--12-------7-------|
|--12-------7-------|
|--12-------7-------|
|--12-------7-------|
|-------------------|
|-------------------|

Outro:
|----------------------------------12-|
|----------------------------------12-|
|----------------12/(14)\12--------12-|
|----------------------------------12-|
|--------------------------12--12-----|
|-12--12-----12-----------------------|
                 whammy             rake
            
Submit corrections


        Dentro Marilyn lessons Hard to play? Try these video lessons and learn fast Dentro Marilyn lessons
        
↑ Back to top | Tablatures and chords for acoustic guitar and electric guitar, ukulele, drums are parodies/interpretations of the original songs. You may use it for private study, scholarship, research or language learning purposes only