» » »

Afterhours - 1.9.9.6 1 Tabs

Artists:  A B C D E F G H I J K L M N O P Q R S T U V W X Y Z # 

1.9.9.6 1 Tabs

(ver. 1) Click to play this song!
Afterhours
 Rating:
4/5 (4 votes)

 1.9.9.6 1 lessons Tabs too difficult? Try these video lessons and learn fast
 
                AFTEROURS

1.9.9.6


standard tuning

|-----------------------------------------------------------------------|
|-----------------------------------------------------------------------|
|-----------------------------------------------------------------------|
|--7-7-7-7-7-7-7-7--5-5-5-5-5-5-5-5--3-3-3-3-3-3-3-3--5-5-5-5--6-6-6-6--|
|--7-7-7-7-7-7-7-7--5-5-5-5-5-5-5-5--3-3-3-3-3-3-3-3--5-5-5-5--6-6-6-6--|
|--5-5-5-5-5-5-5-5--3-3-3-3-3-3-3-3--1-1-1-1-1-1-1-1--3-3-3-3--4-4-4-4--|
acoustic  verse/chorus

|--------------------------|
|--------------------------|
|--------------------------|
|-----7---------5----/7----|
|---7---------5------------|
|-5---------3--------------|
electric intro/verse

|--------------------------------9--9--9--9--9--10-10-10-10-10-10-10-10--|
|-------------------------------10-10-10-10-10--10-10-10-10-10-10-10-10--|
|-------------------------------11-11-11-11-11--11-11-11-11-11-11-11-11--|
|--x-x-x-x-x-x-x-x-x-x-x-x-x-x--11-11-11-11-11--12-12-12-12-12-12-12-12--|
|--x-x-x-x-x-x-x-x-x-x-x-x-x-x---9--9--9--9--9--12-12-12-12-12-12-12-12--|
|--x-x-x-x-x-x-x-x-x-x-x-x-x-x------------------10-10-10-10-10-10-10-10--|
pre-chorus

|--------------------------|---------------------------------------|
|--------------------------|--3p2h3p2h3p2h3p2h3p2h3p2h3p2h3p2h3p2--|
|--------------------------|---------------------------------------|
|--------------------------|---------------------------------------|
|---0------0------0-----0--|---------------------------------------|
|--------------------------|---------------------------------------|
pre-chorus 1 electric   x2

|-----------------------------|
|--------2b3r2------2b3r2-----|
|--2-----------2--------------|
|-----------------------------|
|-----------------------------|
|-----------------------------|
pre-chorus 2 electric

at end of 2nd pre-chorus, the second part is replaced with this:

|----10p9h10p9h10p9h10p9h10p9h10p9h10p9h10p9h10p9--|
|--------------------------------------------------|
|--------------------------------------------------|
|--------------------------------------------------|
|--------------------------------------------------|
|--------------------------------------------------|
            
Submit corrections


        1.9.9.6 1 lessons Hard to play? Try these video lessons and learn fast 1.9.9.6 1 lessons
        
↑ Back to top | Tablatures and chords for acoustic guitar and electric guitar, ukulele, drums are parodies/interpretations of the original songs. You may use it for private study, scholarship, research or language learning purposes only