» » »

Afi - The Great Disappointment Bass

Artists:  A B C D E F G H I J K L M N O P Q R S T U V W X Y Z # 

The Great Disappointment Bass

(ver. 1) Click to play this song!
Afi
 Rating:
4/5 (4 votes)


 The Great Disappointment lessons Tabs too difficult? Try these video lessons and learn fast
 
                (2)
Instrument: Bass
Tuning: Normal (EADG)

This song is by far my favorite off of Sing The Sorrow. The bass riff I absolutely love, so I figured it out for you! I'm 101% sure I got the main introduction riff correct, and I'm still figuring out the chorus and everything else. Just in case you don't know, here's what the different symbols I use mean:

2h4: hammer on from fret 2 to 4 quickly, or from whatever fret to whatever other riff.
(0:36) : The time you come in, or that certain section comes in. If you play the song in Winamp or Windows Media Player, it will show you the times.


Introduction (bass only with guitar scr*ps in backround):
(0:36)
----------------------------------------------------------
----------------------------------------------------------
---44--4-4-4--44-4-4-4-4--44--4-4-4-4-44--4-4-4-4-
----------------------------------------------------------
(0:52)
--------------------------------------------
-----------4h6-2-----------------4h6-2----
---4--4-4---------2--2-0--0-0---------2-2
--------------------------------------------- x6 (i think)

(1:18 Verse)
--------------------------------------------
-----------4h6-2-----------------4h6-2----
---4--4-4---------2--2-0--0-0---------2-2
---------------------------------------------x4

Then, a little later in the song, it's almost the same riff, but a little twist is added *gasp!*:
(4:25)
-----------4h6-2-----------------4h6-2---------------4h6-2-----------------------------
---4--4-4---------2--2-0--0-0---------2-2---4--4-4---------2--2-0--0-0-------------

---4-2~~----------------------------------------------------------------------------------
            
Submit corrections



        The Great Disappointment lessons Hard to play? Try these video lessons and learn fast The Great Disappointment lessons
        
↑ Back to top | Tablatures and chords for acoustic guitar and electric guitar, ukulele, drums are parodies/interpretations of the original songs. You may use it for private study, scholarship, research or language learning purposes only