» » »

Afi - Paper Airplanes (Makeshift Wings) Tabs

Artists:  A B C D E F G H I J K L M N O P Q R S T U V W X Y Z # 

Paper Airplanes (Makeshift Wings) Tabs

(ver. 2) Click to play this song!
Afi
 Rating:
4/5 (4 votes)


 Paper Airplanes (Makeshift Wings) lessons Tabs too difficult? Try these video lessons and learn fast
 
                Tuning: Eb Ab Db Gb Bb eb


Intro:

eb: -------------------------------------------------------------           
Bb: -------------------------------------------------------------                 
Gb: 12---14-14-14--121212-101010--121212--14-14-14--121212-101010
Db: x-----x--x--x---x-x-x--x-x-x---x-x-x---x--x--x---x-x-x--x-x-x
Ab: 10-/-12-12-12/-101010/-8-8-8/-101010/-12-12-12/-101010/-8-8-8
Eb: -------------------------------------------------------------

eb: -----------------------------------------------------------------------          
Bb: -----------------------------------------------------------------------                
Gb: 12---14-14-14--121212-101010--121212-----------------------------------
Db: x-----x--x--x---x-x-x--x-x-x---x-x-x-----------------------------------
Ab: 10-/-12-12-12/-101010/-8-8-8/-101010-----------------------------------
Eb: -------------------------------------0-8^10-0-8^10-0-8^10-0-8^10--0-0-0
                                                                      pm
Verse:

eb: 6-6-6-6-6-6-6-6-6-6-6-6-6-6---8-8-8-8-8-8-8-8
Bb: 6-6-6-6-6-6-6-6-6-6-6-6-6-6---8-8-8-8-8-8-8-8
Gb: 7-7-7-7-7-7-7-7-7-7-7-7-7-7---9-9-9-9-9-9-9-9
Db: 8-8-8-8-8-8-8-8-8-8-8-8-8-8---1010101010101010
Ab: 8-8-8-8-8-8-8-8-8-8-8-8-8-8---1010101010101010
Eb: 6-6-6-6-6-6-6-6-6-6-6-6-6-6---8-8-8-8-8-8-8-8

eb: --------------------------------------------------------------5-5-5--6-6-6
Bb: ----------------1313131313----1010101010101010---1111111111---5-5-5--6-6-6
Gb: 101010-9-9-9-----x-x-x-x-x-----x-x-x-x-x-x-x-x----x-x-x-x-x---6-6-6--7-7-7
Db: x-x-x--x-x-x----1010101010-----7-7-7-7-7-7-7-7----8-8-8-8-8---7-7-7--8-8-8
Ab: 8-8-8--7-7-7--------------------------------------------------7-7-7--8-8-8
Eb: --------------------------------------------------------------5-5-5--6-6-6

or...

eb: --------------------------------------------------------------
Bb: --------------------------------------------------------------
Gb: ---------------------17-17-17-17-17--14-14-14-14-14---13-13-13
Db: 15-15-15--14-14-14----x--x--x--x--x---x--x--x--x--x----x--x--x
Ab: -x--x--x---x--x--x---15-15-15-15-15--12-12-12-12-12---11-11-11
Eb: 13-13-13--12-12-12--------------------------------------------

Pre-Chorus:  Palm mute where necessary

eb: --------------------------------------------------
Bb: --------------------------------------------------
Gb: --------------------------------------------------
Db: 8-8-8-8--1010--121212121212----8-8-8----1010101010
Ab: 8-8-8-8--1010--121212121212----8-8-8----1010101010
Eb: 6-6-6-6---8-8--101010101010----6-6-6-----8-8-8-8-8


eb: 6-6-6-6-6-6----8-8-8-8-8-8---10101010101010-----6-6-6-6----8-8-8-8-8-8-8-8
Bb: 6-6-6-6-6-6----8-8-8-8-8-8---10101010101010-----6-6-6-6----8-8-8-8-8-8-8-8
Gb: 7-7-7-7-7-7----9-9-9-9-9-9---11111111111111-----7-7-7-7----9-9-9-9-9-9-9-9
Db: 8-8-8-8-8-8----101010101010--12121212121212-----8-8-8-8----1010101010101010
Ab: 8-8-8-8-8-8----101010101010--12121212121212-----8-8-8-8----1010101010101010
Eb: 6-6-6-6-6-6----8-8-8-8-8-8---10101010101010-----6-6-6-6----8-8-8-8-8-8-8-8

eb: ------------------------5-5-5-5-5-5
Bb: --6-6-6-6-6---3-3-3-3-3------------
Gb: -----------------------------------
Db: -----------------------------------
Ab: -----------------------------------
Eb: -----------------------------------

Chorus:

eb: ------------------------------------------------------
Bb: ------------------------------------------------------
Gb: ------------------------------------------------------
Db: 121212121212----3-3-3-3-3-----8-8-8-8-8------5-5-5-5-5
Ab: 121212121212----3-3-3-3-3-----8-8-8-8-8------5-5-5-5-5
Eb: 101010101010----1-1-1-1-1-----6-6-6-6-6------3-3-3-3-3


eb: 101010101010----8-8-8-8-8-8----6-6-6-6-6-6-6-6-6
Bb: 101010101010----8-8-8-8-8-8----6-6-6-6-6-6-6-6-6
Gb: 111111111111----9-9-9-9-9-9----7-7-7-7-7-7-7-7-7
Db: 121212121212----101010101010---8-8-8-8-8-8-8-8-8
Ab: 121212121212----101010101010---8-8-8-8-8-8-8-8-8
Eb: 101010101010----8-8-8-8-8-8----6-6-6-6-6-6-6-6-6


eb: ----------------------------------------------------------------
Bb: ----------------------------------------------------------------
Gb: ---------------------------------------------------------------5
Db: 3--3--2--2--2--5--5--4--4--4--3--3--2--2-----------------------5
Ab: ---------------------------------------------3-3--1--3-5--1-1--3
Eb: -----------------------------------------------------------pm---


eb: --------------------------------------------------------------------
Bb: --------------------------------------------------------------------
Gb: 7-7-7-7-7-7-7-7-7---9-9---------------------------------------------
Db: 8-8-8-8-8-8-8-8-8---1010------3-3-3-3-3----5--2--4--4--4--5--4--4--4
Ab: 8-8-8-8-8-8-8-8-8---1010------3-3-3-3-3-----------------------------
Eb: 6-6-6-6-6-6-6-6-6---8-8-------1-1-1-1-1-----------------------------


eb: ----------------------------------------------------------------
Bb: ----------------------------------------------------------------
Gb: 7-7-7-7-7-7-7-7-7---9-9-----------------------------------------
Db: 8-8-8-8-8-8-8-8-8---1010-------3-3-3-3-3---5--2--4--4--4---5---7
Ab: 8-8-8-8-8-8-8-8-8---1010-------3-3-3-3-3------------------------
Eb: 6-6-6-6-6-6-6-6-6---8-8--------1-1-1-1-1------------------------


eb: ----------------------------------------
Bb: ----------------------------------------
Gb: ----------------------------------------
Db: 5-/-7-7-7-7---5-/-7-7-7-7----8-\-7-7-7-7
Ab: 3-/-5-5-5-5---3-/-5-5-5-5----6-\-5-5-5-5
Eb: 0---0-0-0-0---0---0-0-0-0----0---0-0-0-0


i take no credit for this song. i only went back and transferred everything to Eb tuning. please rate this
            
Submit corrections



        Paper Airplanes (Makeshift Wings) lessons Hard to play? Try these video lessons and learn fast Paper Airplanes (Makeshift Wings) lessons
        
↑ Back to top | Tablatures and chords for acoustic guitar and electric guitar, ukulele, drums are parodies/interpretations of the original songs. You may use it for private study, scholarship, research or language learning purposes only