» » »

Afi - Malleus Maleficarum Bass

Artists:  A B C D E F G H I J K L M N O P Q R S T U V W X Y Z # 

Malleus Maleficarum Bass

(ver. 2) Click to play this song!
Afi
 Rating:
4/5 (4 votes)


 Malleus Maleficarum lessons Tabs too difficult? Try these video lessons and learn fast
 
                AFI - Malleus Maleficarum

Intro
G|-----------|
D|-----------|
A|-2~-----7~-|
E|-----------|

Verse
G|-----|------------------------|
D|-----|------------------------|
A|-----|-----5---0-2-----55-----|
E|-000-|-/33---3------33----5-7-|

P-chorus
G|-------------------------------------|
D|-------------------------------------|
A|-------------------00000000-77777777-|
E|-00000000-33333333-------------------|

Chorus
G|---------------------------|
D|---------------------------|
A|------5-55--------------7--|
E|-3-33------5-3-5-7-0-0---0-|

G|----------------------------|
D|----------------------------|
A|------5-55-----7----5h7-5h7-|
E|-3-33------000---00---------|

G|----------------------------|
D|----------------------------|
A|-33333333333333-0-222222222-|
E|----------------------------|

Verse
G|--------------------|
D|--------------------|
A|---------5--0-2--7>-|
E|-000--33---3--------|

play Chorus here

Bridge
G|---------------------------------|--------------------------------|--------|
D|---------------------------------|--------------------------------|--------|
A|-----5-7-----5-7-------------7---|------7------5h7-5h7--------7---|--------|
E|-000-----000-----3-2-3-5-0-0---0-|-0000---0000---------3-5-00---0-|-3-5-0~-|

 Bridge 2
G|-------------|
D|-------------|
A|-------------|
E|-00-0000-000-|

play chorus here
play bridge here
            
Submit corrections



        Malleus Maleficarum lessons Hard to play? Try these video lessons and learn fast Malleus Maleficarum lessons
        
↑ Back to top | Tablatures and chords for acoustic guitar and electric guitar, ukulele, drums are parodies/interpretations of the original songs. You may use it for private study, scholarship, research or language learning purposes only