» » »

Afi - Last Caress Bass

Artists:  A B C D E F G H I J K L M N O P Q R S T U V W X Y Z # 

Last Caress Bass

(ver. 1) Click to play this song!
Afi
 Rating:
4/5 (4 votes)


 Last Caress lessons Tabs too difficult? Try these video lessons and learn fast
 
                               Last Caress[Misfits Cover] - AFI
--------------------------------------------------------------------------------------------|

Shut Your Mouth and Open Your Eyes[Vinyl Only]

I'm 100% sure this is right.


Tuning: E A D G

Intro
G-----------------------------|
D-----------------------------|
A-3~-----35-----35-----3~--0~-|
E-----------------------------|

Verse    :09  x4                       :20
G---------------|-------------------------|
D---------------|-------------------------|
A---------3--5--|-3333333300000000--------|
E-33333333------|-----------------3333333-|

Chorus				:25
G----------------------------------|
D-------------------------22222222-|
A-3333333355555555----2222---------|
E-----------------3333-------------|

Post Chorus                         :30
G--------------------------------------|
D--------------------------------------|
A-33333335555555------33555------33555-|
E---------------333333-----333333------|

Verse	x2  :38                      :43
G-------------|-------------------------|
D-------------|-------------------------|
A---------3-5-|-3333333300000000--------|
E-33333333----|-----------------3333333-|

Chorus				:49
G----------------------------------|
D-------------------------22222222-|
A-3333333355555555----2222---------|
E-----------------3333-------------|

Post Chorus                         :54
G--------------------------------------|
D--------------------------------------|
A-33333335555555------33555------33555-|
E---------------333333-----333333------|

Verse	             1:02                       1:08
G------------------------|-------------------------|
D------------------------|-------------------------|
A---------3-5---------35-|-3333333300000000--------|
E-33333333----33333333---|-----------------3333333-|

Chorus		                        1:13
G-------------------------------------------|
D-------------------------22222222----------|
A-3333333355555555----2222--------33333333~-|
E-----------------3333----------------------|

Outro 1:30  x8   x1 1:51
G-------------|---------|
D-------------|---------|
A-------33555-|---------|
E-333333------|-3~------|

| /  slide up
| \  slide down
| h  hammer-on
| p  pull-off
| ~  vibrato
| +  harmonic
| x  Mute note
            
Submit corrections



        Last Caress lessons Hard to play? Try these video lessons and learn fast Last Caress lessons
        
↑ Back to top | Tablatures and chords for acoustic guitar and electric guitar, ukulele, drums are parodies/interpretations of the original songs. You may use it for private study, scholarship, research or language learning purposes only