» » »

Afi - Consult My Lover Bass

Artists:  A B C D E F G H I J K L M N O P Q R S T U V W X Y Z # 

Consult My Lover Bass

(ver. 1) Click to play this song!
Afi
 Rating:
4/5 (4 votes)


 Consult My Lover lessons Tabs too difficult? Try these video lessons and learn fast
 
                A.F.I. -  Consult My Lover 

Intro
E|-0-0-0

Verse
G|-----------------------------------------------------------------|
D|-----------------------------------------------------------------|
A|-7-7-7-7---------5-5-5-5---------3-3-3-3---------7-7-7-7---------|
E|---------3-3-3-3---------5-5-5-5---------3-3-3-3---------5-5-5-5-|

Chorus when "Proud" is said hit either the 5 or 10
G|------------------------------------------|
D|------------------------------------------|
A|-7-7-7-5-7-7-7-10-7-7-7-5---------5-5-5-5-|
E|--------------------------3-3-3-3---------|

Bridge
G|-----------------------------|
D|-----------------------------|
A|-----------------------------|
E|-0000000000000000000000000---|
            
Submit corrections



        Consult My Lover lessons Hard to play? Try these video lessons and learn fast Consult My Lover lessons
        
↑ Back to top | Tablatures and chords for acoustic guitar and electric guitar, ukulele, drums are parodies/interpretations of the original songs. You may use it for private study, scholarship, research or language learning purposes only