Home » A » Afi »

Afi - Affliction Bass

Artists:  A B C D E F G H I J K L M N O P Q R S T U V W X Y Z # 

Affliction Bass

(ver. 1) Click to play this song!
Afi
 Rating:
4.4/5 (7 votes)
                Song Title: Affliction
Band Name: AFI
Tuning: Standard

Intro
G----------------------------------------------------------------------------------------------|
D------------------4---4-66----------------------4---4-66--------------------------4---4-66----|
A-----------4-6-7---6-------6-4----------4-6-7---6-------6-4--------------4-6-7---6-------6-4--|
E----4-6-7--------------------------4-6-7-----------------------------4-6-7--------------------|

G----------------------------------------|
D------------------------------------4---|
A-----------------------------4-6-7------|
E----7-7-777-77-7--4-6-7-----------------|

Verse
G----------------------------------------------------------------------------------------------|
D------------------4---4-66----------------------4---4-66--------------------------4---4-66----|
A-----------4-6-7---6-------6-4----------4-6-7---6-------6-4--------------4-6-7---6-------6-4--|
E----4-6-7--------------------------4-6-7-----------------------------4-6-7--------------------|

G----------------------------------------|
D------------------------------------4---|
A-----------------------------4-6-7------|
E----7-7-777-7-7--4-6-7------------------|

Verse2
G----------------------------------------------------------------------------------------------|
D------------------4---4-66----------------------4---4-66--------------------------4---4-66----|
A-----------4-6-7---6-------6-4----------4-6-7---6-------6-4--------------4-6-7---6-------6-4--|
E----4-6-7--------------------------4-6-7-----------------------------4-6-7--------------------|

G----------------------------------|
D----------------------------------|
A-------------------------4444-----|
E----4444-6666-7777----------------|

PreChorus
G---------------------------------------------------------------------|
D---------------------------------------------------------------------|
A---------------------------------------------------------------------|
E----44-4444--44--4444-666----44-4444--44--4444-6666------------------|

Chorus
G------------------------------------------------------------------------------------------------|
D------------------------------------------------------------------------------------------------|
A----------------------------99-77-66-44-77-66-44-----------------------------------44----44-66--|
E--7777777777777777------------------------------66-444444444444--6666-77----77------------------|

G--------------------------------------------------------------------------------------------|
D--------------------------------------------------------------------------------------------|
A----------------------------99-77-66-44-77-66-44--------------------------66-6666-666-6666--|
E--7777777777777777------------------------------66-444444444444-----------------------------|

Verse
G----------------------------------------------------------------------------------------------|
D------------------4---4-66----------------------4---4-66--------------------------4---4-66----|
A-----------4-6-7---6-------6-4----------4-6-7---6-------6-4--------------4-6-7---6-------6-4--|
E----4-6-7--------------------------4-6-7-----------------------------4-6-7--------------------|

G----------------------------------------|
D------------------------------------4---|
A-----------------------------4-6-7------|
E----7-7-777-77-7--4-6-7-----------------|

G----------------------------------------------------------------------------------------------|
D------------------4---4-66----------------------4---4-66--------------------------4---4-66----|
A-----------4-6-7---6-------6-4----------4-6-7---6-------6-4--------------4-6-7---6-------6-4--|
E----4-6-7--------------------------4-6-7-----------------------------4-6-7--------------------|

G----------------------------------------|
D------------------------------------4---|
A-----------------------------4-6-7------|
E----7-7-777-7-7--4-6-7------------------|

Verse2
G----------------------------------------------------------------------------------------------|
D------------------4---4-66----------------------4---4-66--------------------------4---4-66----|
A-----------4-6-7---6-------6-4----------4-6-7---6-------6-4--------------4-6-7---6-------6-4--|
E----4-6-7--------------------------4-6-7-----------------------------4-6-7--------------------|

G----------------------------------|
D----------------------------------|
A-------------------------4444-----|
E----4444-6666-7777----------------|

PreChorus
G---------------------------------------------------------------------|
D---------------------------------------------------------------------|
A---------------------------------------------------------------------|
E----44-4444--44--4444-666----44-4444--44--4444-6666------------------|

Chorus
G------------------------------------------------------------------------------------------------|
D------------------------------------------------------------------------------------------------|
A----------------------------99-77-66-44-77-66-44-----------------------------------44----44-66--|
E--7777777777777777------------------------------66-444444444444--6666-77----77------------------|

G--------------------------------------------------------------------------------------------|
D--------------------------------------------------------------------------------------------|
A----------------------------99-77-66-44-77-66-44--------------------------66-6666-666-6666--|
E--7777777777777777------------------------------66-444444444444-----------------------------|

G---------------------------------|
D---------------------------------|
A--66666666666666666--------------|
E-----------------------------4---|

Bridge
G-----------11-13--11-8-11-8-6-4-6-8-6-8-6-4------------|
D-------------------------------------------------------|
A---6/11------------------------------------------------|
E-------------------------------------------------------|

Bridge2
G-----------4---------------------------------4----------------------------------|
D---6--6-8--8-6-8-6----------------6--6-8--8-6-8-6--------------------4----------|
A------------------------7-777-6-------------------------7-7777-6666-6-----------|
E--------------------------------------------------------------------------------|

G-----------4---------------------------------4---------------------------------------|
D---6--6-8--8-6-8-6----------------6--6-8--8-6-8-6------------------------------------|
A------------------------7-777-6-------------------------7-7777-66-44-----------------|
E---------------------------------------------------------------------------77-66-4---|

PreChorus
G---------------------------------------------------------------------|
D---------------------------------------------------------------------|
A---------------------------------------------------------------------|
E----44-4444--44--4444-666----44-4444--44--4444-6666------------------|

Chorus
G------------------------------------------------------------------------------------------------|
D------------------------------------------------------------------------------------------------|
A----------------------------99-77-66-44-77-66-44-----------------------------------44----44-66--|
E--7777777777777777------------------------------66-444444444444--6666-77----77------------------|

G--------------------------------------------------------------------------------------------|
D--------------------------------------------------------------------------------------------|
A----------------------------99-77-66-44-77-66-44--------------------------66-6666-666-6666--|
E--7777777777777777------------------------------66-444444444444-----------------------------|

Outro
G-------------------------------------------------------------|
D-------------------------------------------------------------|
A-------------------------------------------------------------|
E--4--6-4-6-7---4--6-4-6-7---4--6-4-6-7---4-44-666------------|

G----------------------------------------------------------------|
D----------------------------------------------------------------|
A----------------------------------------------------------------|
E--4--6-4-6-7---4--6-4-6-7---4--6-4-6-7---4-44-666--4------------|
            
Submit corrections

↑ Back to top | Tablatures and chords for acoustic guitar and electric guitar, ukulele, drums are parodies/interpretations of the original songs. You may use it for private study, scholarship, research or language learning purposes only