» » »

Aerosmith - You See Me Crying Tabs

Artists:  A B C D E F G H I J K L M N O P Q R S T U V W X Y Z # 

You See Me Crying Tabs

(ver. 2) Click to play this song!
Aerosmith
 Rating:
4/5 (4 votes)


 You See Me Crying lessons Tabs too difficult? Try these video lessons and learn fast
 
                ----------------------------------------------------------------------------
----------------------------------------------------------------------------

Tuning:standard

   Solo #1:
e|----------------------------------------|------------------------3-------|
B|-------------15-------18----------------|----------6--6-6----------------|
G|---15-17-17b----17b------17br--15-17----|-5b-5b-5b-------5br-3-----------|
D|-17----------------------------------17-|----------------------5---------|
A|----------------------------------------|--------------------------------|
E|----------------------------------------|--------------------------------|

e|-6-8b-6-8-6---6---------------------|----------3-------------------------|
B|-----------6-8-8-6------------------|---------3-6-3----------------------|
G|------------------7-6-5-3--3br-0----|-----3-5b-----5b---3-5--------------|
D|--------------------------5-----3-3-|--3-5-------------------------------|
A|------------------------------------|-5----------------------------------|
E|------------------------------------|------------------------------------|

e|--------------------------------|---------------------------------8-10b-8-15|
B|--------------------------------|-5-6-7-8--8b--10--8-10-8-10h-8-10-------|
G|-7b-5-7--7b---5--7b-5-7b--5-----|----------------------------------------|
D|-------------------------7--7-5-|----------------------------------------|
A|--------------------------------|----------------------------------------|
E|--------------------------------|----------------------------------------|

 
   Solo #2:
e|-------------------------------------------------------------18----------|
B|-8-8-8--5-6-5-8-5-5-8h--5-6-8-10-10b-10b-10b---------15-18-18b-18br-15---|
G|------------------------------------------------15-17--------------------|
D|----------------------------------------------17-------------------------|
A|-------------------------------------------------------------------------|
E|-------------------------------------------------------------------------|

e|---------------------------------------------18-17-15-18-20b-20b-18------|
B|-15-----------18---------------18b-18b--18-15----------------------------|
G|---15-17---17b--17br-15--15-17h------------------------------------------|
D|-------------------------------------------------------------------------|
A|-------------------------------------------------------------------------|
E|-------------------------------------------------------------------------|

e|-18-17-15-17-15------|---------------------------------------------------|
B|---------------15-15-|----18---------------------------------------------|
G|---------------------|-17b--17br-15--------------------------------------|
D|---------------------|-------------17-15----15-14-12-14------------------|
A|---------------------|------------------17-------------------------------|
E|---------------------|---------------------------------------------------|

************************************

| /   slide up
| \   slide down
| h   hammer-on
| p   pull-off
| ~   vibrato
| +   harmonic
| x   Mute note
| b   Bend
| pb  Pre-bend
| br  Bend release
| pbr Pre-bend release
| brb Bend release bend

************************************
            
Submit corrections



        You See Me Crying lessons Hard to play? Try these video lessons and learn fast You See Me Crying lessons
        
↑ Back to top | Tablatures and chords for acoustic guitar and electric guitar, ukulele, drums are parodies/interpretations of the original songs. You may use it for private study, scholarship, research or language learning purposes only