» » »

Aerosmith - Livin On The Edge Tabs

Artists:  A B C D E F G H I J K L M N O P Q R S T U V W X Y Z # 

Livin On The Edge Tabs

(ver. 3) Click to play this song!
Aerosmith
 Rating:
4/5 (4 votes)


 Livin On The Edge lessons Tabs too difficult? Try these video lessons and learn fast
 
                
Tuning: Drop D
AEROSMITH - Livin' On The Edge Solo

      I was just listening to the song yesterday and I noticed the tab I
 had for it didn't include the solo. So, I figured this out.


e|------------------------------------------------|
B|------------------------------------------------|
G|12b14-12b14-12b14--12b14-12b14-12b14r--11-------|Whenever you release the 
D|------------------------------------------------|bend on the fret on these
A|------------------------------------------------|you can either pull off to  
E|------------------------------------------------|the next note, or play the 
                                                   12th fret again and hit
e|------------------------------------------------|the note
B|------------------------------------------------|
G|12b14-12b14-12b14--12b14-12b14-12b14r--10-------|
D|------------------------------------------------|
A|------------------------------------------------|
E|------------------------------------------------|

e|---------------------------------------------------|
B|---------------------------------------------------|
G|12b14r12b14r12b14r-12b14-12b14-12b14r-10-----------|
D|---------------------------------------------------|
A|---------------------------------------------------|
E|---------------------------------------------------|

e|----------14--14h17p14--12b14-10-12b14---12b14r-10-10------|
B|-----------------------------------------------------------|
G|9--9/15-14-------------------------------------------------|
D|-----------------------------------------------------------|
A|-----------------------------------------------------------|
E|-----------------------------------------------------------|

e|------------------------------------------------|
B|15b16r-15--13b14r-13--11b12r-11-----------------|
G|--------------------------------------10--10b---|I wasn't sure  how much to 
D|------------------------------------------------|bend here, so do it until 
A|------------------------------------------------|it sounds good to you
E|------------------------------------------------|

e|14--13-14-13-14-13-14-13-14-17-14-12-14---------|
B|------------------------------------------------|
G|------------------------------------------------|
D|------------------------------------------------|
A|------------------------------------------------|
E|------------------------------------------------|

| b  bend
| r  release bend
| /  slide up

===============================================================================
            
Submit corrections



        Livin On The Edge lessons Hard to play? Try these video lessons and learn fast Livin On The Edge lessons
        
↑ Back to top | Tablatures and chords for acoustic guitar and electric guitar, ukulele, drums are parodies/interpretations of the original songs. You may use it for private study, scholarship, research or language learning purposes only