» » »

A Day To Remember - Danger In Starting A Fire Tabs

Artists:  A B C D E F G H I J K L M N O P Q R S T U V W X Y Z # 

Danger In Starting A Fire Tabs

(ver. 3) Click to play this song!
A Day To Remember
 Rating:
4/5 (7 votes)


 Danger In Starting A Fire lessons Tabs too difficult? Try these video lessons and learn fast
 
                -------------------------------------------------------------------------------
                The Danger In Starting a Fire - A Day To Remember
-------------------------------------------------------------------------------

Tuning: Drop C

|---------------------------------------------------------------------------|
|-----8---8h10-----8---8h10--------------8---8h10-----8---8h10--------------|
|---7------------7---------------------7------------7-----------------------|
|-0-----0------0-----0---------------0-----0------0-----0-------X-X-X-------|
|---------------------------------------------------------------X-X-X-------|
|---------------------------------------------------------------X-X-X-------|
  .     .      .     .               .     .      .     .

|--------------------------------------------------------------------|
|--------------------------------------------------------------------|
|--------------------------------------------------------------------|
|-5-5-5-5-5-5-5-5-5-5-5-5-5-5-5-5-8-8-8-8-8-8-8-8-8-8-8-8-8-8-8-8----|
|-5-5-5-5-5-5-5-5-5-5-5-5-5-5-5-5-8-8-8-8-8-8-8-8-8-8-8-8-8-8-8-8----|
|-5-5-5-5-5-5-5-5-5-5-5-5-5-5-5-5-8-8-8-8-8-8-8-8-8-8-8-8-8-8-8-8----|

|--------------------------------------------------------------------|
|--------------------------------------------------------------------|
|--------------------------------------------------------------------|
|-0-0-0-0-0-0-0-0-0-0-0-0-0-0-0-0-3-3-3-3-3-3-3-3-3-3-3-3-3-3-3-3----|
|-0-0-0-0-0-0-0-0-0-0-0-0-0-0-0-0-3-3-3-3-3-3-3-3-3-3-3-3-3-3-3-3----|
|-0-0-0-0-0-0-0-0-0-0-0-0-0-0-0-0-3-3-3-3-3-3-3-3-3-3-3-3-3-3-3-3----|

|--------------------------------------------------------------------|
|--------------------------------------------------------------------|
|--------------------------------------------------------------------|
|-5-5-5-5-5-5-5-5-5-5-5-5-5-5-5-5-8-8-8-8-8-8-8-8-8-8-8-8-8-8-8-8----|
|-5-5-5-5-5-5-5-5-5-5-5-5-5-5-5-5-8-8-8-8-8-8-8-8-8-8-8-8-8-8-8-8----|
|-5-5-5-5-5-5-5-5-5-5-5-5-5-5-5-5-8-8-8-8-8-8-8-8-8-8-8-8-8-8-8-8----|

|--------------------------------------------------------------------|
|--------------------------------------------------------------------|
|--------------------------------------------------------------------|
|-0-0-0-0-0-0-0-0-0-0-0-0-0-0-0-0-3-3-3-3-3-3-3-3-3-3-3-3-3-3-3-3----|
|-0-0-0-0-0-0-0-0-0-0-0-0-0-0-0-0-3-3-3-3-3-3-3-3-3-3-3-3-3-3-3-3----|
|-0-0-0-0-0-0-0-0-0-0-0-0-0-0-0-0-3-3-3-3-3-3-3-3-3-3-3-3-3-3-3-3----|

|--------------------------------------------------------------------|
|--------------------------------------------------------------------|
|-7-7-7-7-7-7-7-7-7-7-7-7-7-7-7/10--101010101010101010101010101010---|
|-X-X-X-X-X-X-X-X-X-X-X-X-X-X-X/X---X-X-X-X-X-X-X-X-X-X-X-X-X-X-X----|
|-5-5-5-5-5-5-5-5-5-5-5-5-5-3-3/8---8-8-8-8-8-8-8-8-8-8-8-8-8-8-8----|
|--------------------------------------------------------------------|

|---------------------------------------------------------------------|
|---------------------------------------------------------------------|
|---------------------------------------------------------------------|
|---------------------------------------------------------------------|
|-0-0-8---7-3---0-------8---7-3-----0-0-8---7-3---0-------8---7-3-----|
|-0-0---0-----0-0-----0---0---------0-0---0-----0-0-----0---0---------|
  . .   .     .       .   .         . .   .     .       .   .

|--------------------------------------------------------------------|
|--------------------------------------------------------------------|
|-7-7-7-7-7-7-7-7-7-7-7-7-7-7-7/10--101010101010101010101010101010---|
|-X-X-X-X-X-X-X-X-X-X-X-X-X-X-X/X---X-X-X-X-X-X-X-X-X-X-X-X-X-X-X----|
|-5-5-5-5-5-5-5-5-5-5-5-5-5-3-3/8---8-8-8-8-8-8-8-8-8-8-8-8-8-8-8----|
|--------------------------------------------------------------------|

|---------------------------------------------------------------------|
|---------------------------------------------------------------------|
|---------------------------------------------------------------------|
|---------------------------------------------------------------------|
|-0-0-8---7-3---0-------8---7-3-----0-0-8---7-3---0-------8---7-3-----|
|-0-0---0-----0-0-----0---0---------0-0---0-----0-0-----0---0---------|
  . .   .     .       .   .         . .   .     .       .   .

|---------------------------------------------------------------------|
|---------------------------------------------------------------------|
|-----------------------------------------------------------5b--------|
|---------------------------------------------------------------------|
|-0-0-8---7-3---0-------8---7-3-----0-0-8---7-3-----0-----------------|
|-0-0---0-----0-0-----0---0---------0-0---0---------0-----------------|
  . .   .     .       .   .         . .   .                 *

|---------------------------------------------------------------------|
|---------------------------------------------------------------------|
|---------------------------------------------------------------------|
|---------------------------------------------------------------------|
|-0-0-8---7-3---0-------8---7-3-----0-0-8---7-3---0-------8---7-3-----|
|-0-0---0-----0-0-----0---0---------0-0---0-----0-0-----0---0---------|
  . .   .     .       .   .         . .   .     .       .   .

|---------------------------------------------------------------------|
|---------------------------------------------------------------------|
|---------------------------------------------------------------------|
|---------------------------------------------------------------------|
|-0-0-8---7-3---0-------8---7-3-----0-0-8---7-3---0-------8---7-3-----|
|-0-0---0-----0-0-----0---0---------0-0---0-----0-0-----0---0---------|
  . .   .     .       .   .         . .   .     .       .   .

|-----------------------------------------------------------|
|-----------------------------------------------------------|
|-----------------------------------------------------------|
|-0-0-0-----0---0---0-0---------0-0-0-----0---0---0-0-------|
|-0-0-0-----0---0---0-0---------0-0-0-----0---0---0-0-------|
|-0-0-0-----0---0---0-0---------0-0-0-----0---0---0-0-------|
  . . .     .   .   . .         . . .     .   .   . .

|-----------------------------------------------------------------|
|-----------------------------------------------------------------|
|-----------------------------------------------------------------|
|-000-000-0-0-----0---0---0-0---------0-0-0-----0---0---0-0-------|
|-000-000-0-0-----0---0---0-0---------0-0-0-----0---0---0-0-------|
|-000-000-0-0-----0---0---0-0---------0-0-0-----0---0---0-0-------|
  ... ... . .     .   .   . .         . . .     .   .   . .

|----------------------------|
|----------------------------|
|----------------------------|
|-0-0-0-----0---0---0-0------|
|-0-0-0-----0---0---0-0------|
|-0-0-0-----0---0---0-0------|
  . . .     .   .   . .

|-----------------------------------------------------------|
|-----------------------------------------------------------|
|-----------------------------------------------------------|
|-0-0-0-----0---0---0-0---------0-0-0-----0---0---0-0-------|
|-0-0-0-----0---0---0-0---------0-0-0-----0---0---0-0-------|
|-0-0-0-----0---0---0-0---------0-0-0-----0---0---0-0-------|
  + + +     +   +   + +         + + +     +   +   + +

|-----------------------------------------------------------|
|-----------------------------------------------------------|
|-----------------------------------------------------------|
|-0-0-0-----0---0---0-0---------0-0-0-----0---0---0-0-------|
|-0-0-0-----0---0---0-0---------0-0-0-----0---0---0-0-------|
|-0-0-0-----0---0---0-0---------0-0-0-----0---0---0-0-------|
  + + +     +   +   + +         + + +     +   +   + +

|----------------------------|
|----------------------------|
|----------------------------|
|-0-0-0-----0---0---0-0------|
|-0-0-0-----0---0---0-0------|
|-0-0-0-----0---0---0-0------|
  . . .     .   .   . .

|---------------------------------------------------------------------------|
|-----8---8h10-----8---8h10-----8h10-----8---8h10-----8---8h10--------------|
|---7------------7------------7--------7------------7-----------------------|
|-0-----0------0-----0------0--------0-----0------0-----0-------X-X-X-------|
|---------------------------------------------------------------X-X-X-------|
|---------------------------------------------------------------X-X-X-------|
  .     .      .     .      .        .     .      .     .

|--------------------------------------------------------------------|
|--------------------------------------------------------------------|
|--------------------------------------------------------------------|
|-5-5-5-5-5-5-5-5-5-5-5-5-5-5-5-5-8-8-8-8-8-8-8-8-8-8-8-8-8-8-8-8----|
|-5-5-5-5-5-5-5-5-5-5-5-5-5-5-5-5-8-8-8-8-8-8-8-8-8-8-8-8-8-8-8-8----|
|-5-5-5-5-5-5-5-5-5-5-5-5-5-5-5-5-8-8-8-8-8-8-8-8-8-8-8-8-8-8-8-8----|

|--------------------------------------------------------------------|
|--------------------------------------------------------------------|
|--------------------------------------------------------------------|
|-0-0-0-0-0-0-0-0-0-0-0-0-0-0-0-0-3-3-3-3-3-3-3-3-3-3-3-3-3-3-3-3----|
|-0-0-0-0-0-0-0-0-0-0-0-0-0-0-0-0-3-3-3-3-3-3-3-3-3-3-3-3-3-3-3-3----|
|-0-0-0-0-0-0-0-0-0-0-0-0-0-0-0-0-3-3-3-3-3-3-3-3-3-3-3-3-3-3-3-3----|

|--------------------------------------------------------------------|
|--------------------------------------------------------------------|
|--------------------------------------------------------------------|
|-5-5-5-5-5-5-5-5-5-5-5-5-5-5-5-5-8-8-8-8-8-8-8-8-8-8-8-8-8-8-8-8----|
|-5-5-5-5-5-5-5-5-5-5-5-5-5-5-5-5-8-8-8-8-8-8-8-8-8-8-8-8-8-8-8-8----|
|-5-5-5-5-5-5-5-5-5-5-5-5-5-5-5-5-8-8-8-8-8-8-8-8-8-8-8-8-8-8-8-8----|

|--------------------------------------------------------------------|
|--------------------------------------------------------------------|
|--------------------------------------------------------------------|
|-0-0-0-0-0-0-0-0-0-0-0-0-0-0-0-0-3-3-3-3-3-3-3-3-3-3-3-3-3-3-3-3----|
|-0-0-0-0-0-0-0-0-0-0-0-0-0-0-0-0-3-3-3-3-3-3-3-3-3-3-3-3-3-3-3-3----|
|-0-0-0-0-0-0-0-0-0-0-0-0-0-0-0-0-3-3-3-3-3-3-3-3-3-3-3-3-3-3-3-3----|

|--------------------------------------------------------------------|
|--------------------------------------------------------------------|
|-7-7-7-7-7-7-7-7-7-7-7-7-7-7-7/10--101010101010101010101010101010---|
|-X-X-X-X-X-X-X-X-X-X-X-X-X-X-X/X---X-X-X-X-X-X-X-X-X-X-X-X-X-X-X----|
|-5-5-5-5-5-5-5-5-5-5-5-5-5-3-3/8---8-8-8-8-8-8-8-8-8-8-8-8-8-8-8----|
|--------------------------------------------------------------------|

|---------------------------------------------------------------------|
|---------------------------------------------------------------------|
|---------------------------------------------------------------------|
|---------------------------------------------------------------------|
|-0-0-8---7-3---0-------8---7-3-----0-0-8---7-3---0-------8---7-3-----|
|-0-0---0-----0-0-----0---0---------0-0---0-----0-0-----0---0---------|
  . .   .     .       .   .         . .   .     .       .   .

|--------------------------------------------------------------------|
|--------------------------------------------------------------------|
|-7-7-7-7-7-7-7-7-7-7-7-7-7-7-7/10--101010101010101010101010101010---|
|-X-X-X-X-X-X-X-X-X-X-X-X-X-X-X/X---X-X-X-X-X-X-X-X-X-X-X-X-X-X-X----|
|-5-5-5-5-5-5-5-5-5-5-5-5-5-3-3/8---8-8-8-8-8-8-8-8-8-8-8-8-8-8-8----|
|--------------------------------------------------------------------|

|---------------------------------------------------------------------|
|---------------------------------------------------------------------|
|---------------------------------------------------------------------|
|---------------------------------------------------------------------|
|-0-0-8---7-3---0-------8---7-3-----0-0-8---7-3---0-------8---7-3-----|
|-0-0---0-----0-0-----0---0---------0-0---0-----0-0-----0---0---------|
  . .   .     .       .   .         . .   .     .       .   .

|----------------------------|
|----------------------------|
|----------------------------|
|-0-0-0-----0---0---0-0------|
|-0-0-0-----0---0---0-0------|
|-0-0-0-----0---0---0-0------|
  . . .     .   .   . .

|-----------------------------------------------------------|
|-----------------------------------------------------------|
|-----------------------------------------------------------|
|-0-0-0-----0---0---0-0---------0-0-0-----0---0---0-0-------|
|-0-0-0-----0---0---0-0---------0-0-0-----0---0---0-0-------|
|-0-0-0-----0---0---0-0---------0-0-0-----0---0---0-0-------|
  + + +     +   +   + +         + + +     +   +   + +

|-----------------------------------------------------------|
|-----------------------------------------------------------|
|-----------------------------------------------------------|
|-0-0-0-----0---0---0-0---------0-0-0-----0---0---0-0-------|
|-0-0-0-----0---0---0-0---------0-0-0-----0---0---0-0-------|
|-0-0-0-----0---0---0-0---------0-0-0-----0---0---0-0-------|
  + + +     +   +   + +         + + +     +   +   + +

|----------------------------|
|----------------------------|
|----------------------------|
|-0-0-0-----0---0---0-0------|
|-0-0-0-----0---0---0-0------|
|-0-0-0-----0---0---0-0------|
  . . .     .   .   . .

|--------------------------------------|
|--------------------------------------|
|--10----------------------------------|
|--10----------------------------------|
|--8-----------------------------------|
|--8-----------------------------------|

 (2:40)
|-------10-------------------------------------|
|-------14-------------------------------------|
|----------------------------------------------|
|-0-0-0----0-0--------------0-000---0000000-0--|
|-0-0-0----0-0--------------0-000---0000000-0--|
|-0-0-0----0-0--------------0-000---0000000-0--|
  . . .    . .              . +++   ++++++. .

|-------10-------------------------------------|
|-------14-------------------------------------|
|----------------------------------------------|
|-0-0-0----0-0--------------0-000---0000000-0--|
|-0-0-0----0-0--------------0-000---0000000-0--|
|-0-0-0----0-0--------------0-000---0000000-0--|
  . . .    . .              . +++   ++++++. .

|-------10-------------------------------------|
|-------14-------------------------------------|
|----------------------------------------------|
|-0-0-0----0-0--------------0-000---0000000-0--|
|-0-0-0----0-0--------------0-000---0000000-0--|
|-0-0-0----0-0--------------0-000---0000000-0--|
  . . .    . .              . +++   ++++++. .

|-------10-------------------------------------|
|-------14-------------------------------------|
|----------------------------------------------|
|-0-0-0----0-0--------------0-000---0000000-0--|
|-0-0-0----0-0--------------0-000---0000000-0--|
|-0-0-0----0-0--------------0-000---0000000-0--|
  . . .    . .              . +++   ++++++. .

|-------10--------|
|-------14--------|
|-----------------|
|-0-0-0----0-0----|
|-0-0-0----0-0----|
|-0-0-0----0-0----|
  . . .    . .


************************************

| .   palm mute
| +   palm mute (let ring)
| /   slide up
| \   slide down
| h   hammer-on
| p   pull-off
| ~   vibrato
| *   harmonic
| x   Mute note
| b   Bend
| pb  Pre-bend
| br  Bend release
| pbr Pre-bend release
| brb Bend release bend

************************************
            
Submit corrections



        Danger In Starting A Fire lessons Hard to play? Try these video lessons and learn fast Danger In Starting A Fire lessons
        
↑ Back to top | Tablatures and chords for acoustic guitar and electric guitar, ukulele, drums are parodies/interpretations of the original songs. You may use it for private study, scholarship, research or language learning purposes only